  0
SECTION
  2
HEADER
  9
$ACADVER
  1
AC1009
  9
$EXTMIN
 10
326.402700
 20
334.111600
 30
0.000000
  9
$EXTMAX
 10
486.397300
 20
377.088400
 30
0.000000
  9
$LIMMIN
 10
326.402700
 20
334.111600
  9
$LIMMAX
 10
486.397300
 20
377.088400
  0
ENDSEC
  0
SECTION
  2
TABLES
  0
TABLE
  2
VPORT
 70
1
  0
VPORT
  2
*ACTIVE
 70
0
 10
0.000000
 20
0.000000
 11
1.000000
 21
1.000000
 12
406.400000
 22
355.600000
 13
0.000000
 23
0.000000
 14
1.000000
 24
1.000000
 15
0.000000
 25
0.000000
 16
0.000000
 26
0.000000
 36
1.000000
 17
0.000000
 27
0.000000
 37
0.000000
 40
355.600000
 41
1.750000
 42
50.000000
 43
0.000000
 44
0.000000
 50
0.000000
 51
0.000000
 71
0
 72
100
 73
1
 74
1
 75
0
 76
0
 77
0
 78
0
  0
ENDTAB
  0
TABLE
  2
LTYPE
 70
1
  0
LTYPE
  2
Continuous
 70
0
  3
Solid line
 72
65
 73
0
 40
0.000000
  0
ENDTAB
  0
TABLE
  2
LAYER
 70
91
  0
LAYER
  2
TopCopper
 70
0
 62
1
  6
Continuous
  0
LAYER
  2
BottomCopper
 70
0
 62
5
  6
Continuous
  0
LAYER
  2
ViaHoles
 70
0
 62
255
  6
Continuous
  0
LAYER
  2
Profile
 70
0
 62
55
  6
Continuous
  0
LAYER
  2
Layer10
 70
0
 62
132
  6
Continuous
  0
LAYER
  2
Layer11
 70
0
 62
251
  6
Continuous
  0
ENDTAB
  0
ENDSEC
  0
SECTION
  2
ENTITIES
  0
POLYLINE
  8
Profile
 66
1
 10
0.000000
 20
0.000000
 30
0.000000
 40
0.000000
 41
0.000000
  0
VERTEX
  8
Profile
 10
326.402700
 20
334.111600
  0
VERTEX
  8
Profile
 10
326.402700
 20
377.088400
  0
VERTEX
  8
Profile
 10
486.397300
 20
377.088400
  0
VERTEX
  8
Profile
 10
486.397300
 20
334.111600
  0
VERTEX
  8
Profile
 10
326.402700
 20
334.111600
  0
SEQEND
  0
POLYLINE
  8
TopCopper
 66
1
 10
0.000000
 20
0.000000
 30
0.000000
 40
0.762000
 41
0.762000
 70
1
  0
VERTEX
  8
TopCopper
 42
1.000000
 10
455.180700
 20
337.591400
  0
VERTEX
  8
TopCopper
 42
1.000000
 10
455.942700
 20
337.591400
  0
SEQEND
  0
POLYLINE
  8
TopCopper
 66
1
 10
0.000000
 20
0.000000
 30
0.000000
 40
0.762000
 41
0.762000
 70
1
  0
VERTEX
  8
TopCopper
 42
1.000000
 10
453.174100
 20
337.591400
  0
VERTEX
  8
TopCopper
 42
1.000000
 10
453.936100
 20
337.591400
  0
SEQEND
  0
POLYLINE
  8
TopCopper
 66
1
 10
0.000000
 20
0.000000
 30
0.000000
 40
0.762000
 41
0.762000
 70
1
  0
VERTEX
  8
TopCopper
 42
1.000000
 10
451.167500
 20
337.591400
  0
VERTEX
  8
TopCopper
 42
1.000000
 10
451.929500
 20
337.591400
  0
SEQEND
  0
POLYLINE
  8
TopCopper
 66
1
 10
0.000000
 20
0.000000
 30
0.000000
 40
0.762000
 41
0.762000
 70
1
  0
VERTEX
  8
TopCopper
 42
1.000000
 10
405.168100
 20
337.591400
  0
VERTEX
  8
TopCopper
 42
1.000000
 10
405.930100
 20
337.591400
  0
SEQEND
  0
POLYLINE
  8
TopCopper
 66
1
 10
0.000000
 20
0.000000
 30
0.000000
 40
0.762000
 41
0.762000
 70
1
  0
VERTEX
  8
TopCopper
 42
1.000000
 10
403.186900
 20
337.591400
  0
VERTEX
  8
TopCopper
 42
1.000000
 10
403.948900
 20
337.591400
  0
SEQEND
  0
POLYLINE
  8
TopCopper
 66
1
 10
0.000000
 20
0.000000
 30
0.000000
 40
0.762000
 41
0.762000
 70
1
  0
VERTEX
  8
TopCopper
 42
1.000000
 10
401.180300
 20
337.591400
  0
VERTEX
  8
TopCopper
 42
1.000000
 10
401.942300
 20
337.591400
  0
SEQEND
  0
POLYLINE
  8
TopCopper
 66
1
 10
0.000000
 20
0.000000
 30
0.000000
 40
0.762000
 41
0.762000
 70
1
  0
VERTEX
  8
TopCopper
 42
1.000000
 10
399.173700
 20
337.591400
  0
VERTEX
  8
TopCopper
 42
1.000000
 10
399.935700
 20
337.591400
  0
SEQEND
  0
POLYLINE
  8
TopCopper
 66
1
 10
0.000000
 20
0.000000
 30
0.000000
 40
0.762000
 41
0.762000
 70
1
  0
VERTEX
  8
TopCopper
 42
1.000000
 10
397.167100
 20
337.591400
  0
VERTEX
  8
TopCopper
 42
1.000000
 10
397.929100
 20
337.591400
  0
SEQEND
  0
POLYLINE
  8
TopCopper
 66
1
 10
0.000000
 20
0.000000
 30
0.000000
 40
0.762000
 41
0.762000
 70
1
  0
VERTEX
  8
TopCopper
 42
1.000000
 10
395.185900
 20
337.591400
  0
VERTEX
  8
TopCopper
 42
1.000000
 10
395.947900
 20
337.591400
  0
SEQEND
  0
POLYLINE
  8
TopCopper
 66
1
 10
0.000000
 20
0.000000
 30
0.000000
 40
0.762000
 41
0.762000
 70
1
  0
VERTEX
  8
TopCopper
 42
1.000000
 10
393.179300
 20
337.591400
  0
VERTEX
  8
TopCopper
 42
1.000000
 10
393.941300
 20
337.591400
  0
SEQEND
  0
POLYLINE
  8
TopCopper
 66
1
 10
0.000000
 20
0.000000
 30
0.000000
 40
0.762000
 41
0.762000
 70
1
  0
VERTEX
  8
TopCopper
 42
1.000000
 10
391.172700
 20
337.591400
  0
VERTEX
  8
TopCopper
 42
1.000000
 10
391.934700
 20
337.591400
  0
SEQEND
  0
POLYLINE
  8
TopCopper
 66
1
 10
0.000000
 20
0.000000
 30
0.000000
 40
0.762000
 41
0.762000
 70
1
  0
VERTEX
  8
TopCopper
 42
1.000000
 10
389.166100
 20
337.591400
  0
VERTEX
  8
TopCopper
 42
1.000000
 10
389.928100
 20
337.591400
  0
SEQEND
  0
POLYLINE
  8
TopCopper
 66
1
 10
0.000000
 20
0.000000
 30
0.000000
 40
0.762000
 41
0.762000
 70
1
  0
VERTEX
  8
TopCopper
 42
1.000000
 10
387.184900
 20
337.591400
  0
VERTEX
  8
TopCopper
 42
1.000000
 10
387.946900
 20
337.591400
  0
SEQEND
  0
POLYLINE
  8
TopCopper
 66
1
 10
0.000000
 20
0.000000
 30
0.000000
 40
0.762000
 41
0.762000
 70
1
  0
VERTEX
  8
TopCopper
 42
1.000000
 10
385.178300
 20
337.591400
  0
VERTEX
  8
TopCopper
 42
1.000000
 10
385.940300
 20
337.591400
  0
SEQEND
  0
POLYLINE
  8
TopCopper
 66
1
 10
0.000000
 20
0.000000
 30
0.000000
 40
0.762000
 41
0.762000
 70
1
  0
VERTEX
  8
TopCopper
 42
1.000000
 10
383.171700
 20
337.591400
  0
VERTEX
  8
TopCopper
 42
1.000000
 10
383.933700
 20
337.591400
  0
SEQEND
  0
POLYLINE
  8
TopCopper
 66
1
 10
0.000000
 20
0.000000
 30
0.000000
 40
0.762000
 41
0.762000
 70
1
  0
VERTEX
  8
TopCopper
 42
1.000000
 10
381.165100
 20
337.591400
  0
VERTEX
  8
TopCopper
 42
1.000000
 10
381.927100
 20
337.591400
  0
SEQEND
  0
POLYLINE
  8
TopCopper
 66
1
 10
0.000000
 20
0.000000
 30
0.000000
 40
0.762000
 41
0.762000
 70
1
  0
VERTEX
  8
TopCopper
 42
1.000000
 10
379.183900
 20
337.591400
  0
VERTEX
  8
TopCopper
 42
1.000000
 10
379.945900
 20
337.591400
  0
SEQEND
  0
POLYLINE
  8
TopCopper
 66
1
 10
0.000000
 20
0.000000
 30
0.000000
 40
0.762000
 41
0.762000
 70
1
  0
VERTEX
  8
TopCopper
 42
1.000000
 10
377.177300
 20
337.591400
  0
VERTEX
  8
TopCopper
 42
1.000000
 10
377.939300
 20
337.591400
  0
SEQEND
  0
POLYLINE
  8
TopCopper
 66
1
 10
0.000000
 20
0.000000
 30
0.000000
 40
0.762000
 41
0.762000
 70
1
  0
VERTEX
  8
TopCopper
 42
1.000000
 10
375.170700
 20
337.591400
  0
VERTEX
  8
TopCopper
 42
1.000000
 10
375.932700
 20
337.591400
  0
SEQEND
  0
POLYLINE
  8
TopCopper
 66
1
 10
0.000000
 20
0.000000
 30
0.000000
 40
0.762000
 41
0.762000
 70
1
  0
VERTEX
  8
TopCopper
 42
1.000000
 10
373.164100
 20
337.591400
  0
VERTEX
  8
TopCopper
 42
1.000000
 10
373.926100
 20
337.591400
  0
SEQEND
  0
POLYLINE
  8
TopCopper
 66
1
 10
0.000000
 20
0.000000
 30
0.000000
 40
0.762000
 41
0.762000
 70
1
  0
VERTEX
  8
TopCopper
 42
1.000000
 10
371.182900
 20
337.591400
  0
VERTEX
  8
TopCopper
 42
1.000000
 10
371.944900
 20
337.591400
  0
SEQEND
  0
POLYLINE
  8
TopCopper
 66
1
 10
0.000000
 20
0.000000
 30
0.000000
 40
0.762000
 41
0.762000
 70
1
  0
VERTEX
  8
TopCopper
 42
1.000000
 10
369.176300
 20
337.591400
  0
VERTEX
  8
TopCopper
 42
1.000000
 10
369.938300
 20
337.591400
  0
SEQEND
  0
POLYLINE
  8
TopCopper
 66
1
 10
0.000000
 20
0.000000
 30
0.000000
 40
0.762000
 41
0.762000
 70
1
  0
VERTEX
  8
TopCopper
 42
1.000000
 10
367.169700
 20
337.591400
  0
VERTEX
  8
TopCopper
 42
1.000000
 10
367.931700
 20
337.591400
  0
SEQEND
  0
POLYLINE
  8
TopCopper
 66
1
 10
0.000000
 20
0.000000
 30
0.000000
 40
0.762000
 41
0.762000
 70
1
  0
VERTEX
  8
TopCopper
 42
1.000000
 10
361.175300
 20
337.591400
  0
VERTEX
  8
TopCopper
 42
1.000000
 10
361.937300
 20
337.591400
  0
SEQEND
  0
POLYLINE
  8
TopCopper
 66
1
 10
0.000000
 20
0.000000
 30
0.000000
 40
0.762000
 41
0.762000
 70
1
  0
VERTEX
  8
TopCopper
 42
1.000000
 10
359.168700
 20
337.591400
  0
VERTEX
  8
TopCopper
 42
1.000000
 10
359.930700
 20
337.591400
  0
SEQEND
  0
POLYLINE
  8
TopCopper
 66
1
 10
0.000000
 20
0.000000
 30
0.000000
 40
0.762000
 41
0.762000
 70
1
  0
VERTEX
  8
TopCopper
 42
1.000000
 10
357.187500
 20
337.591400
  0
VERTEX
  8
TopCopper
 42
1.000000
 10
357.949500
 20
337.591400
  0
SEQEND
  0
POLYLINE
  8
TopCopper
 66
1
 10
0.000000
 20
0.000000
 30
0.000000
 40
0.762000
 41
0.762000
 70
1
  0
VERTEX
  8
TopCopper
 42
1.000000
 10
379.666500
 20
365.861600
  0
VERTEX
  8
TopCopper
 42
1.000000
 10
380.428500
 20
365.861600
  0
SEQEND
  0
POLYLINE
  8
TopCopper
 66
1
 10
0.000000
 20
0.000000
 30
0.000000
 40
0.762000
 41
0.762000
 70
1
  0
VERTEX
  8
TopCopper
 42
1.000000
 10
377.126500
 20
365.861600
  0
VERTEX
  8
TopCopper
 42
1.000000
 10
377.888500
 20
365.861600
  0
SEQEND
  0
POLYLINE
  8
TopCopper
 66
1
 10
0.000000
 20
0.000000
 30
0.000000
 40
0.762000
 41
0.762000
 70
1
  0
VERTEX
  8
TopCopper
 42
1.000000
 10
374.586500
 20
365.861600
  0
VERTEX
  8
TopCopper
 42
1.000000
 10
375.348500
 20
365.861600
  0
SEQEND
  0
POLYLINE
  8
TopCopper
 66
1
 10
0.000000
 20
0.000000
 30
0.000000
 40
0.762000
 41
0.762000
 70
1
  0
VERTEX
  8
TopCopper
 42
1.000000
 10
372.046500
 20
365.861600
  0
VERTEX
  8
TopCopper
 42
1.000000
 10
372.808500
 20
365.861600
  0
SEQEND
  0
POLYLINE
  8
TopCopper
 66
1
 10
0.000000
 20
0.000000
 30
0.000000
 40
0.762000
 41
0.762000
 70
1
  0
VERTEX
  8
TopCopper
 42
1.000000
 10
372.046500
 20
358.241600
  0
VERTEX
  8
TopCopper
 42
1.000000
 10
372.808500
 20
358.241600
  0
SEQEND
  0
POLYLINE
  8
TopCopper
 66
1
 10
0.000000
 20
0.000000
 30
0.000000
 40
0.762000
 41
0.762000
 70
1
  0
VERTEX
  8
TopCopper
 42
1.000000
 10
374.586500
 20
358.241600
  0
VERTEX
  8
TopCopper
 42
1.000000
 10
375.348500
 20
358.241600
  0
SEQEND
  0
POLYLINE
  8
TopCopper
 66
1
 10
0.000000
 20
0.000000
 30
0.000000
 40
0.762000
 41
0.762000
 70
1
  0
VERTEX
  8
TopCopper
 42
1.000000
 10
377.126500
 20
358.241600
  0
VERTEX
  8
TopCopper
 42
1.000000
 10
377.888500
 20
358.241600
  0
SEQEND
  0
POLYLINE
  8
TopCopper
 66
1
 10
0.000000
 20
0.000000
 30
0.000000
 40
0.762000
 41
0.762000
 70
1
  0
VERTEX
  8
TopCopper
 42
1.000000
 10
379.666500
 20
358.241600
  0
VERTEX
  8
TopCopper
 42
1.000000
 10
380.428500
 20
358.241600
  0
SEQEND
  0
POLYLINE
  8
TopCopper
 66
1
 10
0.000000
 20
0.000000
 30
0.000000
 40
0.762000
 41
0.762000
 70
1
  0
VERTEX
  8
TopCopper
 42
1.000000
 10
336.003900
 20
338.836000
  0
VERTEX
  8
TopCopper
 42
1.000000
 10
336.765900
 20
338.836000
  0
SEQEND
  0
POLYLINE
  8
TopCopper
 66
1
 10
0.000000
 20
0.000000
 30
0.000000
 40
0.762000
 41
0.762000
 70
1
  0
VERTEX
  8
TopCopper
 42
1.000000
 10
336.003900
 20
341.376000
  0
VERTEX
  8
TopCopper
 42
1.000000
 10
336.765900
 20
341.376000
  0
SEQEND
  0
POLYLINE
  8
TopCopper
 66
1
 10
0.000000
 20
0.000000
 30
0.000000
 40
0.762000
 41
0.762000
 70
1
  0
VERTEX
  8
TopCopper
 42
1.000000
 10
426.529500
 20
372.846600
  0
VERTEX
  8
TopCopper
 42
1.000000
 10
427.291500
 20
372.846600
  0
SEQEND
  0
POLYLINE
  8
TopCopper
 66
1
 10
0.000000
 20
0.000000
 30
0.000000
 40
0.762000
 41
0.762000
 70
1
  0
VERTEX
  8
TopCopper
 42
1.000000
 10
401.129500
 20
372.846600
  0
VERTEX
  8
TopCopper
 42
1.000000
 10
401.891500
 20
372.846600
  0
SEQEND
  0
POLYLINE
  8
TopCopper
 66
1
 10
0.000000
 20
0.000000
 30
0.000000
 40
0.762000
 41
0.762000
 70
1
  0
VERTEX
  8
TopCopper
 42
1.000000
 10
373.189500
 20
372.846600
  0
VERTEX
  8
TopCopper
 42
1.000000
 10
373.951500
 20
372.846600
  0
SEQEND
  0
POLYLINE
  8
TopCopper
 66
1
 10
0.000000
 20
0.000000
 30
0.000000
 40
0.762000
 41
0.762000
 70
1
  0
VERTEX
  8
TopCopper
 42
1.000000
 10
398.589500
 20
372.846600
  0
VERTEX
  8
TopCopper
 42
1.000000
 10
399.351500
 20
372.846600
  0
SEQEND
  0
POLYLINE
  8
TopCopper
 66
1
 10
0.000000
 20
0.000000
 30
0.000000
 40
0.762000
 41
0.762000
 70
1
  0
VERTEX
  8
TopCopper
 42
1.000000
 10
362.394500
 20
374.751600
  0
VERTEX
  8
TopCopper
 42
1.000000
 10
363.156500
 20
374.751600
  0
SEQEND
  0
POLYLINE
  8
TopCopper
 66
1
 10
0.000000
 20
0.000000
 30
0.000000
 40
0.762000
 41
0.762000
 70
1
  0
VERTEX
  8
TopCopper
 42
1.000000
 10
362.394500
 20
372.211600
  0
VERTEX
  8
TopCopper
 42
1.000000
 10
363.156500
 20
372.211600
  0
SEQEND
  0
POLYLINE
  8
TopCopper
 66
1
 10
0.000000
 20
0.000000
 30
0.000000
 40
0.698500
 41
0.698500
 70
1
  0
VERTEX
  8
TopCopper
 42
1.000000
 10
397.249650
 20
364.210600
  0
VERTEX
  8
TopCopper
 42
1.000000
 10
397.948150
 20
364.210600
  0
SEQEND
  0
POLYLINE
  8
TopCopper
 66
1
 10
0.000000
 20
0.000000
 30
0.000000
 40
0.698500
 41
0.698500
 70
1
  0
VERTEX
  8
TopCopper
 42
1.000000
 10
397.249650
 20
366.217200
  0
VERTEX
  8
TopCopper
 42
1.000000
 10
397.948150
 20
366.217200
  0
SEQEND
  0
POLYLINE
  8
TopCopper
 66
1
 10
0.000000
 20
0.000000
 30
0.000000
 40
0.698500
 41
0.698500
 70
1
  0
VERTEX
  8
TopCopper
 42
1.000000
 10
399.230850
 20
364.210600
  0
VERTEX
  8
TopCopper
 42
1.000000
 10
399.929350
 20
364.210600
  0
SEQEND
  0
POLYLINE
  8
TopCopper
 66
1
 10
0.000000
 20
0.000000
 30
0.000000
 40
0.698500
 41
0.698500
 70
1
  0
VERTEX
  8
TopCopper
 42
1.000000
 10
399.230850
 20
366.217200
  0
VERTEX
  8
TopCopper
 42
1.000000
 10
399.929350
 20
366.217200
  0
SEQEND
  0
POLYLINE
  8
TopCopper
 66
1
 10
0.000000
 20
0.000000
 30
0.000000
 40
0.698500
 41
0.698500
 70
1
  0
VERTEX
  8
TopCopper
 42
1.000000
 10
401.237450
 20
364.210600
  0
VERTEX
  8
TopCopper
 42
1.000000
 10
401.935950
 20
364.210600
  0
SEQEND
  0
POLYLINE
  8
TopCopper
 66
1
 10
0.000000
 20
0.000000
 30
0.000000
 40
0.698500
 41
0.698500
 70
1
  0
VERTEX
  8
TopCopper
 42
1.000000
 10
401.237450
 20
366.217200
  0
VERTEX
  8
TopCopper
 42
1.000000
 10
401.935950
 20
366.217200
  0
SEQEND
  0
POLYLINE
  8
TopCopper
 66
1
 10
0.000000
 20
0.000000
 30
0.000000
 40
0.698500
 41
0.698500
 70
1
  0
VERTEX
  8
TopCopper
 42
1.000000
 10
403.244050
 20
364.210600
  0
VERTEX
  8
TopCopper
 42
1.000000
 10
403.942550
 20
364.210600
  0
SEQEND
  0
POLYLINE
  8
TopCopper
 66
1
 10
0.000000
 20
0.000000
 30
0.000000
 40
0.698500
 41
0.698500
 70
1
  0
VERTEX
  8
TopCopper
 42
1.000000
 10
403.244050
 20
366.217200
  0
VERTEX
  8
TopCopper
 42
1.000000
 10
403.942550
 20
366.217200
  0
SEQEND
  0
POLYLINE
  8
TopCopper
 66
1
 10
0.000000
 20
0.000000
 30
0.000000
 40
0.698500
 41
0.698500
 70
1
  0
VERTEX
  8
TopCopper
 42
1.000000
 10
405.250650
 20
364.210600
  0
VERTEX
  8
TopCopper
 42
1.000000
 10
405.949150
 20
364.210600
  0
SEQEND
  0
POLYLINE
  8
TopCopper
 66
1
 10
0.000000
 20
0.000000
 30
0.000000
 40
0.698500
 41
0.698500
 70
1
  0
VERTEX
  8
TopCopper
 42
1.000000
 10
405.250650
 20
366.217200
  0
VERTEX
  8
TopCopper
 42
1.000000
 10
405.949150
 20
366.217200
  0
SEQEND
  0
POLYLINE
  8
TopCopper
 66
1
 10
0.000000
 20
0.000000
 30
0.000000
 40
0.698500
 41
0.698500
 70
1
  0
VERTEX
  8
TopCopper
 42
1.000000
 10
407.231850
 20
364.210600
  0
VERTEX
  8
TopCopper
 42
1.000000
 10
407.930350
 20
364.210600
  0
SEQEND
  0
POLYLINE
  8
TopCopper
 66
1
 10
0.000000
 20
0.000000
 30
0.000000
 40
0.698500
 41
0.698500
 70
1
  0
VERTEX
  8
TopCopper
 42
1.000000
 10
407.231850
 20
366.217200
  0
VERTEX
  8
TopCopper
 42
1.000000
 10
407.930350
 20
366.217200
  0
SEQEND
  0
POLYLINE
  8
TopCopper
 66
1
 10
0.000000
 20
0.000000
 30
0.000000
 40
0.698500
 41
0.698500
 70
1
  0
VERTEX
  8
TopCopper
 42
1.000000
 10
409.238450
 20
364.210600
  0
VERTEX
  8
TopCopper
 42
1.000000
 10
409.936950
 20
364.210600
  0
SEQEND
  0
POLYLINE
  8
TopCopper
 66
1
 10
0.000000
 20
0.000000
 30
0.000000
 40
0.698500
 41
0.698500
 70
1
  0
VERTEX
  8
TopCopper
 42
1.000000
 10
409.238450
 20
366.217200
  0
VERTEX
  8
TopCopper
 42
1.000000
 10
409.936950
 20
366.217200
  0
SEQEND
  0
POLYLINE
  8
TopCopper
 66
1
 10
0.000000
 20
0.000000
 30
0.000000
 40
0.698500
 41
0.698500
 70
1
  0
VERTEX
  8
TopCopper
 42
1.000000
 10
411.245050
 20
364.210600
  0
VERTEX
  8
TopCopper
 42
1.000000
 10
411.943550
 20
364.210600
  0
SEQEND
  0
POLYLINE
  8
TopCopper
 66
1
 10
0.000000
 20
0.000000
 30
0.000000
 40
0.698500
 41
0.698500
 70
1
  0
VERTEX
  8
TopCopper
 42
1.000000
 10
411.245050
 20
366.217200
  0
VERTEX
  8
TopCopper
 42
1.000000
 10
411.943550
 20
366.217200
  0
SEQEND
  0
POLYLINE
  8
TopCopper
 66
1
 10
0.000000
 20
0.000000
 30
0.000000
 40
0.698500
 41
0.698500
 70
1
  0
VERTEX
  8
TopCopper
 42
1.000000
 10
413.251650
 20
364.210600
  0
VERTEX
  8
TopCopper
 42
1.000000
 10
413.950150
 20
364.210600
  0
SEQEND
  0
POLYLINE
  8
TopCopper
 66
1
 10
0.000000
 20
0.000000
 30
0.000000
 40
0.698500
 41
0.698500
 70
1
  0
VERTEX
  8
TopCopper
 42
1.000000
 10
413.251650
 20
366.217200
  0
VERTEX
  8
TopCopper
 42
1.000000
 10
413.950150
 20
366.217200
  0
SEQEND
  0
POLYLINE
  8
TopCopper
 66
1
 10
0.000000
 20
0.000000
 30
0.000000
 40
0.698500
 41
0.698500
 70
1
  0
VERTEX
  8
TopCopper
 42
1.000000
 10
415.232850
 20
364.210600
  0
VERTEX
  8
TopCopper
 42
1.000000
 10
415.931350
 20
364.210600
  0
SEQEND
  0
POLYLINE
  8
TopCopper
 66
1
 10
0.000000
 20
0.000000
 30
0.000000
 40
0.698500
 41
0.698500
 70
1
  0
VERTEX
  8
TopCopper
 42
1.000000
 10
415.232850
 20
366.217200
  0
VERTEX
  8
TopCopper
 42
1.000000
 10
415.931350
 20
366.217200
  0
SEQEND
  0
POLYLINE
  8
TopCopper
 66
1
 10
0.000000
 20
0.000000
 30
0.000000
 40
0.698500
 41
0.698500
 70
1
  0
VERTEX
  8
TopCopper
 42
1.000000
 10
335.045050
 20
375.107200
  0
VERTEX
  8
TopCopper
 42
1.000000
 10
335.743550
 20
375.107200
  0
SEQEND
  0
POLYLINE
  8
TopCopper
 66
1
 10
0.000000
 20
0.000000
 30
0.000000
 40
0.698500
 41
0.698500
 70
1
  0
VERTEX
  8
TopCopper
 42
1.000000
 10
337.051650
 20
375.107200
  0
VERTEX
  8
TopCopper
 42
1.000000
 10
337.750150
 20
375.107200
  0
SEQEND
  0
POLYLINE
  8
TopCopper
 66
1
 10
0.000000
 20
0.000000
 30
0.000000
 40
0.698500
 41
0.698500
 70
1
  0
VERTEX
  8
TopCopper
 42
1.000000
 10
339.058250
 20
375.107200
  0
VERTEX
  8
TopCopper
 42
1.000000
 10
339.756750
 20
375.107200
  0
SEQEND
  0
POLYLINE
  8
TopCopper
 66
1
 10
0.000000
 20
0.000000
 30
0.000000
 40
0.698500
 41
0.698500
 70
1
  0
VERTEX
  8
TopCopper
 42
1.000000
 10
341.064850
 20
375.107200
  0
VERTEX
  8
TopCopper
 42
1.000000
 10
341.763350
 20
375.107200
  0
SEQEND
  0
POLYLINE
  8
TopCopper
 66
1
 10
0.000000
 20
0.000000
 30
0.000000
 40
0.698500
 41
0.698500
 70
1
  0
VERTEX
  8
TopCopper
 42
1.000000
 10
343.020650
 20
375.107200
  0
VERTEX
  8
TopCopper
 42
1.000000
 10
343.719150
 20
375.107200
  0
SEQEND
  0
POLYLINE
  8
TopCopper
 66
1
 10
0.000000
 20
0.000000
 30
0.000000
 40
0.698500
 41
0.698500
 70
1
  0
VERTEX
  8
TopCopper
 42
1.000000
 10
335.045050
 20
373.100600
  0
VERTEX
  8
TopCopper
 42
1.000000
 10
335.743550
 20
373.100600
  0
SEQEND
  0
POLYLINE
  8
TopCopper
 66
1
 10
0.000000
 20
0.000000
 30
0.000000
 40
0.698500
 41
0.698500
 70
1
  0
VERTEX
  8
TopCopper
 42
1.000000
 10
337.051650
 20
373.100600
  0
VERTEX
  8
TopCopper
 42
1.000000
 10
337.750150
 20
373.100600
  0
SEQEND
  0
POLYLINE
  8
TopCopper
 66
1
 10
0.000000
 20
0.000000
 30
0.000000
 40
0.698500
 41
0.698500
 70
1
  0
VERTEX
  8
TopCopper
 42
1.000000
 10
339.058250
 20
373.100600
  0
VERTEX
  8
TopCopper
 42
1.000000
 10
339.756750
 20
373.100600
  0
SEQEND
  0
POLYLINE
  8
TopCopper
 66
1
 10
0.000000
 20
0.000000
 30
0.000000
 40
0.698500
 41
0.698500
 70
1
  0
VERTEX
  8
TopCopper
 42
1.000000
 10
341.064850
 20
373.100600
  0
VERTEX
  8
TopCopper
 42
1.000000
 10
341.763350
 20
373.100600
  0
SEQEND
  0
POLYLINE
  8
TopCopper
 66
1
 10
0.000000
 20
0.000000
 30
0.000000
 40
0.698500
 41
0.698500
 70
1
  0
VERTEX
  8
TopCopper
 42
1.000000
 10
343.020650
 20
373.100600
  0
VERTEX
  8
TopCopper
 42
1.000000
 10
343.719150
 20
373.100600
  0
SEQEND
  0
POLYLINE
  8
TopCopper
 66
1
 10
0.000000
 20
0.000000
 30
0.000000
 40
0.762000
 41
0.762000
 70
1
  0
VERTEX
  8
TopCopper
 42
1.000000
 10
373.189500
 20
368.401600
  0
VERTEX
  8
TopCopper
 42
1.000000
 10
373.951500
 20
368.401600
  0
SEQEND
  0
POLYLINE
  8
TopCopper
 66
1
 10
0.000000
 20
0.000000
 30
0.000000
 40
0.635000
 41
0.635000
 70
1
  0
VERTEX
  8
TopCopper
 10
432.308000
 20
373.164100
  0
VERTEX
  8
TopCopper
 10
432.308000
 20
373.799100
  0
VERTEX
  8
TopCopper
 10
431.673000
 20
373.799100
  0
VERTEX
  8
TopCopper
 10
431.673000
 20
373.164100
  0
SEQEND
  0
POLYLINE
  8
TopCopper
 66
1
 10
0.000000
 20
0.000000
 30
0.000000
 40
0.635000
 41
0.635000
 70
1
  0
VERTEX
  8
TopCopper
 10
398.653000
 20
358.559100
  0
VERTEX
  8
TopCopper
 10
398.653000
 20
359.194100
  0
VERTEX
  8
TopCopper
 10
398.018000
 20
359.194100
  0
VERTEX
  8
TopCopper
 10
398.018000
 20
358.559100
  0
SEQEND
  0
POLYLINE
  8
TopCopper
 66
1
 10
0.000000
 20
0.000000
 30
0.000000
 40
0.635000
 41
0.635000
 70
1
  0
VERTEX
  8
TopCopper
 10
442.468000
 20
336.334100
  0
VERTEX
  8
TopCopper
 10
442.468000
 20
336.969100
  0
VERTEX
  8
TopCopper
 10
441.833000
 20
336.969100
  0
VERTEX
  8
TopCopper
 10
441.833000
 20
336.334100
  0
SEQEND
  0
POLYLINE
  8
TopCopper
 66
1
 10
0.000000
 20
0.000000
 30
0.000000
 40
0.635000
 41
0.635000
 70
1
  0
VERTEX
  8
TopCopper
 10
423.418000
 20
355.384100
  0
VERTEX
  8
TopCopper
 10
423.418000
 20
356.019100
  0
VERTEX
  8
TopCopper
 10
422.783000
 20
356.019100
  0
VERTEX
  8
TopCopper
 10
422.783000
 20
355.384100
  0
SEQEND
  0
POLYLINE
  8
TopCopper
 66
1
 10
0.000000
 20
0.000000
 30
0.000000
 40
0.635000
 41
0.635000
 70
1
  0
VERTEX
  8
TopCopper
 10
425.323000
 20
361.734100
  0
VERTEX
  8
TopCopper
 10
425.323000
 20
362.369100
  0
VERTEX
  8
TopCopper
 10
424.688000
 20
362.369100
  0
VERTEX
  8
TopCopper
 10
424.688000
 20
361.734100
  0
SEQEND
  0
POLYLINE
  8
TopCopper
 66
1
 10
0.000000
 20
0.000000
 30
0.000000
 40
0.635000
 41
0.635000
 70
1
  0
VERTEX
  8
TopCopper
 10
437.388000
 20
373.164100
  0
VERTEX
  8
TopCopper
 10
437.388000
 20
373.799100
  0
VERTEX
  8
TopCopper
 10
436.753000
 20
373.799100
  0
VERTEX
  8
TopCopper
 10
436.753000
 20
373.164100
  0
SEQEND
  0
POLYLINE
  8
TopCopper
 66
1
 10
0.000000
 20
0.000000
 30
0.000000
 40
0.635000
 41
0.635000
 70
1
  0
VERTEX
  8
TopCopper
 10
422.783000
 20
361.734100
  0
VERTEX
  8
TopCopper
 10
422.783000
 20
362.369100
  0
VERTEX
  8
TopCopper
 10
422.148000
 20
362.369100
  0
VERTEX
  8
TopCopper
 10
422.148000
 20
361.734100
  0
SEQEND
  0
POLYLINE
  8
TopCopper
 66
1
 10
0.000000
 20
0.000000
 30
0.000000
 40
0.635000
 41
0.635000
 70
1
  0
VERTEX
  8
TopCopper
 10
423.418000
 20
345.224100
  0
VERTEX
  8
TopCopper
 10
423.418000
 20
345.859100
  0
VERTEX
  8
TopCopper
 10
422.783000
 20
345.859100
  0
VERTEX
  8
TopCopper
 10
422.783000
 20
345.224100
  0
SEQEND
  0
POLYLINE
  8
TopCopper
 66
1
 10
0.000000
 20
0.000000
 30
0.000000
 40
0.635000
 41
0.635000
 70
1
  0
VERTEX
  8
TopCopper
 10
449.453000
 20
359.829100
  0
VERTEX
  8
TopCopper
 10
449.453000
 20
360.464100
  0
VERTEX
  8
TopCopper
 10
448.818000
 20
360.464100
  0
VERTEX
  8
TopCopper
 10
448.818000
 20
359.829100
  0
SEQEND
  0
POLYLINE
  8
TopCopper
 66
1
 10
0.000000
 20
0.000000
 30
0.000000
 40
0.635000
 41
0.635000
 70
1
  0
VERTEX
  8
TopCopper
 10
458.343000
 20
359.829100
  0
VERTEX
  8
TopCopper
 10
458.343000
 20
360.464100
  0
VERTEX
  8
TopCopper
 10
457.708000
 20
360.464100
  0
VERTEX
  8
TopCopper
 10
457.708000
 20
359.829100
  0
SEQEND
  0
POLYLINE
  8
TopCopper
 66
1
 10
0.000000
 20
0.000000
 30
0.000000
 40
0.635000
 41
0.635000
 70
1
  0
VERTEX
  8
TopCopper
 10
366.268000
 20
353.479100
  0
VERTEX
  8
TopCopper
 10
366.268000
 20
354.114100
  0
VERTEX
  8
TopCopper
 10
365.633000
 20
354.114100
  0
VERTEX
  8
TopCopper
 10
365.633000
 20
353.479100
  0
SEQEND
  0
POLYLINE
  8
TopCopper
 66
1
 10
0.000000
 20
0.000000
 30
0.000000
 40
0.635000
 41
0.635000
 70
1
  0
VERTEX
  8
TopCopper
 10
359.918000
 20
353.479100
  0
VERTEX
  8
TopCopper
 10
359.918000
 20
354.114100
  0
VERTEX
  8
TopCopper
 10
359.283000
 20
354.114100
  0
VERTEX
  8
TopCopper
 10
359.283000
 20
353.479100
  0
SEQEND
  0
POLYLINE
  8
TopCopper
 66
1
 10
0.000000
 20
0.000000
 30
0.000000
 40
0.635000
 41
0.635000
 70
1
  0
VERTEX
  8
TopCopper
 10
359.918000
 20
356.019100
  0
VERTEX
  8
TopCopper
 10
359.918000
 20
356.654100
  0
VERTEX
  8
TopCopper
 10
359.283000
 20
356.654100
  0
VERTEX
  8
TopCopper
 10
359.283000
 20
356.019100
  0
SEQEND
  0
POLYLINE
  8
TopCopper
 66
1
 10
0.000000
 20
0.000000
 30
0.000000
 40
0.635000
 41
0.635000
 70
1
  0
VERTEX
  8
TopCopper
 10
377.063000
 20
350.939100
  0
VERTEX
  8
TopCopper
 10
377.063000
 20
351.574100
  0
VERTEX
  8
TopCopper
 10
376.428000
 20
351.574100
  0
VERTEX
  8
TopCopper
 10
376.428000
 20
350.939100
  0
SEQEND
  0
POLYLINE
  8
TopCopper
 66
1
 10
0.000000
 20
0.000000
 30
0.000000
 40
0.635000
 41
0.635000
 70
1
  0
VERTEX
  8
TopCopper
 10
439.293000
 20
358.559100
  0
VERTEX
  8
TopCopper
 10
439.293000
 20
359.194100
  0
VERTEX
  8
TopCopper
 10
438.658000
 20
359.194100
  0
VERTEX
  8
TopCopper
 10
438.658000
 20
358.559100
  0
SEQEND
  0
POLYLINE
  8
TopCopper
 66
1
 10
0.000000
 20
0.000000
 30
0.000000
 40
0.635000
 41
0.635000
 70
1
  0
VERTEX
  8
TopCopper
 10
449.453000
 20
354.749100
  0
VERTEX
  8
TopCopper
 10
449.453000
 20
355.384100
  0
VERTEX
  8
TopCopper
 10
448.818000
 20
355.384100
  0
VERTEX
  8
TopCopper
 10
448.818000
 20
354.749100
  0
SEQEND
  0
POLYLINE
  8
TopCopper
 66
1
 10
0.000000
 20
0.000000
 30
0.000000
 40
0.635000
 41
0.635000
 70
1
  0
VERTEX
  8
TopCopper
 10
449.453000
 20
352.209100
  0
VERTEX
  8
TopCopper
 10
449.453000
 20
352.844100
  0
VERTEX
  8
TopCopper
 10
448.818000
 20
352.844100
  0
VERTEX
  8
TopCopper
 10
448.818000
 20
352.209100
  0
SEQEND
  0
POLYLINE
  8
TopCopper
 66
1
 10
0.000000
 20
0.000000
 30
0.000000
 40
0.635000
 41
0.635000
 70
1
  0
VERTEX
  8
TopCopper
 10
449.453000
 20
349.669100
  0
VERTEX
  8
TopCopper
 10
449.453000
 20
350.304100
  0
VERTEX
  8
TopCopper
 10
448.818000
 20
350.304100
  0
VERTEX
  8
TopCopper
 10
448.818000
 20
349.669100
  0
SEQEND
  0
POLYLINE
  8
TopCopper
 66
1
 10
0.000000
 20
0.000000
 30
0.000000
 40
0.635000
 41
0.635000
 70
1
  0
VERTEX
  8
TopCopper
 10
366.268000
 20
357.289100
  0
VERTEX
  8
TopCopper
 10
366.268000
 20
357.924100
  0
VERTEX
  8
TopCopper
 10
365.633000
 20
357.924100
  0
VERTEX
  8
TopCopper
 10
365.633000
 20
357.289100
  0
SEQEND
  0
POLYLINE
  8
TopCopper
 66
1
 10
0.000000
 20
0.000000
 30
0.000000
 40
0.635000
 41
0.635000
 70
1
  0
VERTEX
  8
TopCopper
 10
434.213000
 20
358.559100
  0
VERTEX
  8
TopCopper
 10
434.213000
 20
359.194100
  0
VERTEX
  8
TopCopper
 10
433.578000
 20
359.194100
  0
VERTEX
  8
TopCopper
 10
433.578000
 20
358.559100
  0
SEQEND
  0
POLYLINE
  8
TopCopper
 66
1
 10
0.000000
 20
0.000000
 30
0.000000
 40
0.635000
 41
0.635000
 70
1
  0
VERTEX
  8
TopCopper
 10
449.453000
 20
372.529100
  0
VERTEX
  8
TopCopper
 10
449.453000
 20
373.164100
  0
VERTEX
  8
TopCopper
 10
448.818000
 20
373.164100
  0
VERTEX
  8
TopCopper
 10
448.818000
 20
372.529100
  0
SEQEND
  0
POLYLINE
  8
TopCopper
 66
1
 10
0.000000
 20
0.000000
 30
0.000000
 40
0.635000
 41
0.635000
 70
1
  0
VERTEX
  8
TopCopper
 10
339.598000
 20
338.239100
  0
VERTEX
  8
TopCopper
 10
339.598000
 20
338.874100
  0
VERTEX
  8
TopCopper
 10
338.963000
 20
338.874100
  0
VERTEX
  8
TopCopper
 10
338.963000
 20
338.239100
  0
SEQEND
  0
POLYLINE
  8
TopCopper
 66
1
 10
0.000000
 20
0.000000
 30
0.000000
 40
0.635000
 41
0.635000
 70
1
  0
VERTEX
  8
TopCopper
 10
420.243000
 20
342.049100
  0
VERTEX
  8
TopCopper
 10
420.243000
 20
342.684100
  0
VERTEX
  8
TopCopper
 10
419.608000
 20
342.684100
  0
VERTEX
  8
TopCopper
 10
419.608000
 20
342.049100
  0
SEQEND
  0
POLYLINE
  8
TopCopper
 66
1
 10
0.000000
 20
0.000000
 30
0.000000
 40
0.635000
 41
0.635000
 70
1
  0
VERTEX
  8
TopCopper
 10
392.303000
 20
363.639100
  0
VERTEX
  8
TopCopper
 10
392.303000
 20
364.274100
  0
VERTEX
  8
TopCopper
 10
391.668000
 20
364.274100
  0
VERTEX
  8
TopCopper
 10
391.668000
 20
363.639100
  0
SEQEND
  0
POLYLINE
  8
TopCopper
 66
1
 10
0.000000
 20
0.000000
 30
0.000000
 40
0.635000
 41
0.635000
 70
1
  0
VERTEX
  8
TopCopper
 10
414.528000
 20
339.509100
  0
VERTEX
  8
TopCopper
 10
414.528000
 20
340.144100
  0
VERTEX
  8
TopCopper
 10
413.893000
 20
340.144100
  0
VERTEX
  8
TopCopper
 10
413.893000
 20
339.509100
  0
SEQEND
  0
POLYLINE
  8
TopCopper
 66
1
 10
0.000000
 20
0.000000
 30
0.000000
 40
0.635000
 41
0.635000
 70
1
  0
VERTEX
  8
TopCopper
 10
429.133000
 20
342.049100
  0
VERTEX
  8
TopCopper
 10
429.133000
 20
342.684100
  0
VERTEX
  8
TopCopper
 10
428.498000
 20
342.684100
  0
VERTEX
  8
TopCopper
 10
428.498000
 20
342.049100
  0
SEQEND
  0
POLYLINE
  8
TopCopper
 66
1
 10
0.000000
 20
0.000000
 30
0.000000
 40
0.635000
 41
0.635000
 70
1
  0
VERTEX
  8
TopCopper
 10
422.148000
 20
349.034100
  0
VERTEX
  8
TopCopper
 10
422.148000
 20
349.669100
  0
VERTEX
  8
TopCopper
 10
421.513000
 20
349.669100
  0
VERTEX
  8
TopCopper
 10
421.513000
 20
349.034100
  0
SEQEND
  0
POLYLINE
  8
TopCopper
 66
1
 10
0.000000
 20
0.000000
 30
0.000000
 40
0.635000
 41
0.635000
 70
1
  0
VERTEX
  8
TopCopper
 10
455.168000
 20
340.779100
  0
VERTEX
  8
TopCopper
 10
455.168000
 20
341.414100
  0
VERTEX
  8
TopCopper
 10
454.533000
 20
341.414100
  0
VERTEX
  8
TopCopper
 10
454.533000
 20
340.779100
  0
SEQEND
  0
POLYLINE
  8
TopCopper
 66
1
 10
0.000000
 20
0.000000
 30
0.000000
 40
0.635000
 41
0.635000
 70
1
  0
VERTEX
  8
TopCopper
 10
450.088000
 20
340.779100
  0
VERTEX
  8
TopCopper
 10
450.088000
 20
341.414100
  0
VERTEX
  8
TopCopper
 10
449.453000
 20
341.414100
  0
VERTEX
  8
TopCopper
 10
449.453000
 20
340.779100
  0
SEQEND
  0
POLYLINE
  8
TopCopper
 66
1
 10
0.000000
 20
0.000000
 30
0.000000
 40
0.635000
 41
0.635000
 70
1
  0
VERTEX
  8
TopCopper
 10
455.168000
 20
343.319100
  0
VERTEX
  8
TopCopper
 10
455.168000
 20
343.954100
  0
VERTEX
  8
TopCopper
 10
454.533000
 20
343.954100
  0
VERTEX
  8
TopCopper
 10
454.533000
 20
343.319100
  0
SEQEND
  0
POLYLINE
  8
TopCopper
 66
1
 10
0.000000
 20
0.000000
 30
0.000000
 40
0.635000
 41
0.635000
 70
1
  0
VERTEX
  8
TopCopper
 10
443.738000
 20
344.589100
  0
VERTEX
  8
TopCopper
 10
443.738000
 20
345.224100
  0
VERTEX
  8
TopCopper
 10
443.103000
 20
345.224100
  0
VERTEX
  8
TopCopper
 10
443.103000
 20
344.589100
  0
SEQEND
  0
POLYLINE
  8
TopCopper
 66
1
 10
0.000000
 20
0.000000
 30
0.000000
 40
0.635000
 41
0.635000
 70
1
  0
VERTEX
  8
TopCopper
 10
455.168000
 20
354.749100
  0
VERTEX
  8
TopCopper
 10
455.168000
 20
355.384100
  0
VERTEX
  8
TopCopper
 10
454.533000
 20
355.384100
  0
VERTEX
  8
TopCopper
 10
454.533000
 20
354.749100
  0
SEQEND
  0
POLYLINE
  8
TopCopper
 66
1
 10
0.000000
 20
0.000000
 30
0.000000
 40
0.635000
 41
0.635000
 70
1
  0
VERTEX
  8
TopCopper
 10
373.888000
 20
355.384100
  0
VERTEX
  8
TopCopper
 10
373.888000
 20
356.019100
  0
VERTEX
  8
TopCopper
 10
373.253000
 20
356.019100
  0
VERTEX
  8
TopCopper
 10
373.253000
 20
355.384100
  0
SEQEND
  0
POLYLINE
  8
TopCopper
 66
1
 10
0.000000
 20
0.000000
 30
0.000000
 40
0.635000
 41
0.635000
 70
1
  0
VERTEX
  8
TopCopper
 10
384.733800
 20
363.664500
  0
VERTEX
  8
TopCopper
 10
384.733800
 20
364.299500
  0
VERTEX
  8
TopCopper
 10
384.098800
 20
364.299500
  0
VERTEX
  8
TopCopper
 10
384.098800
 20
363.664500
  0
SEQEND
  0
POLYLINE
  8
TopCopper
 66
1
 10
0.000000
 20
0.000000
 30
0.000000
 40
0.635000
 41
0.635000
 70
1
  0
VERTEX
  8
TopCopper
 10
369.468400
 20
371.868700
  0
VERTEX
  8
TopCopper
 10
369.468400
 20
372.503700
  0
VERTEX
  8
TopCopper
 10
368.833400
 20
372.503700
  0
VERTEX
  8
TopCopper
 10
368.833400
 20
371.868700
  0
SEQEND
  0
POLYLINE
  8
TopCopper
 66
1
 10
0.000000
 20
0.000000
 30
0.000000
 40
0.635000
 41
0.635000
 70
1
  0
VERTEX
  8
TopCopper
 10
355.219000
 20
373.926100
  0
VERTEX
  8
TopCopper
 10
355.219000
 20
374.561100
  0
VERTEX
  8
TopCopper
 10
354.584000
 20
374.561100
  0
VERTEX
  8
TopCopper
 10
354.584000
 20
373.926100
  0
SEQEND
  0
POLYLINE
  8
TopCopper
 66
1
 10
0.000000
 20
0.000000
 30
0.000000
 40
0.825500
 41
0.825500
 70
1
  0
VERTEX
  8
TopCopper
 42
1.000000
 10
466.959950
 20
362.686600
  0
VERTEX
  8
TopCopper
 42
1.000000
 10
467.785450
 20
362.686600
  0
SEQEND
  0
POLYLINE
  8
TopCopper
 66
1
 10
0.000000
 20
0.000000
 30
0.000000
 40
0.825500
 41
0.825500
 70
1
  0
VERTEX
  8
TopCopper
 42
1.000000
 10
466.959950
 20
370.306600
  0
VERTEX
  8
TopCopper
 42
1.000000
 10
467.785450
 20
370.306600
  0
SEQEND
  0
POLYLINE
  8
TopCopper
 66
1
 10
0.000000
 20
0.000000
 30
0.000000
 40
0.825500
 41
0.825500
 70
1
  0
VERTEX
  8
TopCopper
 42
1.000000
 10
466.959950
 20
365.226600
  0
VERTEX
  8
TopCopper
 42
1.000000
 10
467.785450
 20
365.226600
  0
SEQEND
  0
POLYLINE
  8
TopCopper
 66
1
 10
0.000000
 20
0.000000
 30
0.000000
 40
0.825500
 41
0.825500
 70
1
  0
VERTEX
  8
TopCopper
 42
1.000000
 10
477.119950
 20
367.766600
  0
VERTEX
  8
TopCopper
 42
1.000000
 10
477.945450
 20
367.766600
  0
SEQEND
  0
POLYLINE
  8
TopCopper
 66
1
 10
0.000000
 20
0.000000
 30
0.000000
 40
0.825500
 41
0.825500
 70
1
  0
VERTEX
  8
TopCopper
 42
1.000000
 10
477.119950
 20
370.306600
  0
VERTEX
  8
TopCopper
 42
1.000000
 10
477.945450
 20
370.306600
  0
SEQEND
  0
POLYLINE
  8
TopCopper
 66
1
 10
0.000000
 20
0.000000
 30
0.000000
 40
0.825500
 41
0.825500
 70
1
  0
VERTEX
  8
TopCopper
 42
1.000000
 10
477.119950
 20
362.686600
  0
VERTEX
  8
TopCopper
 42
1.000000
 10
477.945450
 20
362.686600
  0
SEQEND
  0
POLYLINE
  8
TopCopper
 66
1
 10
0.000000
 20
0.000000
 30
0.000000
 40
0.825500
 41
0.825500
 70
1
  0
VERTEX
  8
TopCopper
 42
1.000000
 10
463.149950
 20
360.146600
  0
VERTEX
  8
TopCopper
 42
1.000000
 10
463.975450
 20
360.146600
  0
SEQEND
  0
POLYLINE
  8
TopCopper
 66
1
 10
0.000000
 20
0.000000
 30
0.000000
 40
0.825500
 41
0.825500
 70
1
  0
VERTEX
  8
TopCopper
 42
1.000000
 10
470.769950
 20
360.146600
  0
VERTEX
  8
TopCopper
 42
1.000000
 10
471.595450
 20
360.146600
  0
SEQEND
  0
POLYLINE
  8
TopCopper
 66
1
 10
0.000000
 20
0.000000
 30
0.000000
 40
0.825500
 41
0.825500
 70
1
  0
VERTEX
  8
TopCopper
 42
1.000000
 10
465.689950
 20
360.146600
  0
VERTEX
  8
TopCopper
 42
1.000000
 10
466.515450
 20
360.146600
  0
SEQEND
  0
POLYLINE
  8
TopCopper
 66
1
 10
0.000000
 20
0.000000
 30
0.000000
 40
0.825500
 41
0.825500
 70
1
  0
VERTEX
  8
TopCopper
 42
1.000000
 10
468.229950
 20
349.986600
  0
VERTEX
  8
TopCopper
 42
1.000000
 10
469.055450
 20
349.986600
  0
SEQEND
  0
POLYLINE
  8
TopCopper
 66
1
 10
0.000000
 20
0.000000
 30
0.000000
 40
0.825500
 41
0.825500
 70
1
  0
VERTEX
  8
TopCopper
 42
1.000000
 10
470.769950
 20
349.986600
  0
VERTEX
  8
TopCopper
 42
1.000000
 10
471.595450
 20
349.986600
  0
SEQEND
  0
POLYLINE
  8
TopCopper
 66
1
 10
0.000000
 20
0.000000
 30
0.000000
 40
0.825500
 41
0.825500
 70
1
  0
VERTEX
  8
TopCopper
 42
1.000000
 10
463.149950
 20
349.986600
  0
VERTEX
  8
TopCopper
 42
1.000000
 10
463.975450
 20
349.986600
  0
SEQEND
  0
POLYLINE
  8
TopCopper
 66
1
 10
0.000000
 20
0.000000
 30
0.000000
 40
0.825500
 41
0.825500
 70
1
  0
VERTEX
  8
TopCopper
 42
1.000000
 10
480.929950
 20
349.986600
  0
VERTEX
  8
TopCopper
 42
1.000000
 10
481.755450
 20
349.986600
  0
SEQEND
  0
POLYLINE
  8
TopCopper
 66
1
 10
0.000000
 20
0.000000
 30
0.000000
 40
0.825500
 41
0.825500
 70
1
  0
VERTEX
  8
TopCopper
 42
1.000000
 10
473.309950
 20
349.986600
  0
VERTEX
  8
TopCopper
 42
1.000000
 10
474.135450
 20
349.986600
  0
SEQEND
  0
POLYLINE
  8
TopCopper
 66
1
 10
0.000000
 20
0.000000
 30
0.000000
 40
0.825500
 41
0.825500
 70
1
  0
VERTEX
  8
TopCopper
 42
1.000000
 10
478.389950
 20
349.986600
  0
VERTEX
  8
TopCopper
 42
1.000000
 10
479.215450
 20
349.986600
  0
SEQEND
  0
POLYLINE
  8
TopCopper
 66
1
 10
0.000000
 20
0.000000
 30
0.000000
 40
0.825500
 41
0.825500
 70
1
  0
VERTEX
  8
TopCopper
 42
1.000000
 10
475.849950
 20
360.146600
  0
VERTEX
  8
TopCopper
 42
1.000000
 10
476.675450
 20
360.146600
  0
SEQEND
  0
POLYLINE
  8
TopCopper
 66
1
 10
0.000000
 20
0.000000
 30
0.000000
 40
0.825500
 41
0.825500
 70
1
  0
VERTEX
  8
TopCopper
 42
1.000000
 10
473.309950
 20
360.146600
  0
VERTEX
  8
TopCopper
 42
1.000000
 10
474.135450
 20
360.146600
  0
SEQEND
  0
POLYLINE
  8
TopCopper
 66
1
 10
0.000000
 20
0.000000
 30
0.000000
 40
0.825500
 41
0.825500
 70
1
  0
VERTEX
  8
TopCopper
 42
1.000000
 10
480.929950
 20
360.146600
  0
VERTEX
  8
TopCopper
 42
1.000000
 10
481.755450
 20
360.146600
  0
SEQEND
  0
POLYLINE
  8
TopCopper
 66
1
 10
0.000000
 20
0.000000
 30
0.000000
 40
0.825500
 41
0.825500
 70
1
  0
VERTEX
  8
TopCopper
 42
1.000000
 10
466.959950
 20
339.826600
  0
VERTEX
  8
TopCopper
 42
1.000000
 10
467.785450
 20
339.826600
  0
SEQEND
  0
POLYLINE
  8
TopCopper
 66
1
 10
0.000000
 20
0.000000
 30
0.000000
 40
0.825500
 41
0.825500
 70
1
  0
VERTEX
  8
TopCopper
 42
1.000000
 10
466.959950
 20
347.446600
  0
VERTEX
  8
TopCopper
 42
1.000000
 10
467.785450
 20
347.446600
  0
SEQEND
  0
POLYLINE
  8
TopCopper
 66
1
 10
0.000000
 20
0.000000
 30
0.000000
 40
0.825500
 41
0.825500
 70
1
  0
VERTEX
  8
TopCopper
 42
1.000000
 10
466.959950
 20
342.366600
  0
VERTEX
  8
TopCopper
 42
1.000000
 10
467.785450
 20
342.366600
  0
SEQEND
  0
POLYLINE
  8
TopCopper
 66
1
 10
0.000000
 20
0.000000
 30
0.000000
 40
0.825500
 41
0.825500
 70
1
  0
VERTEX
  8
TopCopper
 42
1.000000
 10
477.119950
 20
344.906600
  0
VERTEX
  8
TopCopper
 42
1.000000
 10
477.945450
 20
344.906600
  0
SEQEND
  0
POLYLINE
  8
TopCopper
 66
1
 10
0.000000
 20
0.000000
 30
0.000000
 40
0.825500
 41
0.825500
 70
1
  0
VERTEX
  8
TopCopper
 42
1.000000
 10
477.119950
 20
347.446600
  0
VERTEX
  8
TopCopper
 42
1.000000
 10
477.945450
 20
347.446600
  0
SEQEND
  0
POLYLINE
  8
TopCopper
 66
1
 10
0.000000
 20
0.000000
 30
0.000000
 40
0.825500
 41
0.825500
 70
1
  0
VERTEX
  8
TopCopper
 42
1.000000
 10
477.119950
 20
339.826600
  0
VERTEX
  8
TopCopper
 42
1.000000
 10
477.945450
 20
339.826600
  0
SEQEND
  0
POLYLINE
  8
TopCopper
 66
1
 10
0.000000
 20
0.000000
 30
0.000000
 40
0.952500
 41
0.952500
 70
1
  0
VERTEX
  8
TopCopper
 42
1.000000
 10
341.928450
 20
343.585800
  0
VERTEX
  8
TopCopper
 42
1.000000
 10
342.880950
 20
343.585800
  0
SEQEND
  0
POLYLINE
  8
TopCopper
 66
1
 10
0.000000
 20
0.000000
 30
0.000000
 40
0.952500
 41
0.952500
 70
1
  0
VERTEX
  8
TopCopper
 42
1.000000
 10
346.932250
 20
343.585800
  0
VERTEX
  8
TopCopper
 42
1.000000
 10
347.884750
 20
343.585800
  0
SEQEND
  0
POLYLINE
  8
TopCopper
 66
1
 10
0.000000
 20
0.000000
 30
0.000000
 40
0.952500
 41
0.952500
 70
1
  0
VERTEX
  8
TopCopper
 42
1.000000
 10
341.928450
 20
358.089200
  0
VERTEX
  8
TopCopper
 42
1.000000
 10
342.880950
 20
358.089200
  0
SEQEND
  0
POLYLINE
  8
TopCopper
 66
1
 10
0.000000
 20
0.000000
 30
0.000000
 40
0.952500
 41
0.952500
 70
1
  0
VERTEX
  8
TopCopper
 42
1.000000
 10
344.417650
 20
358.089200
  0
VERTEX
  8
TopCopper
 42
1.000000
 10
345.370150
 20
358.089200
  0
SEQEND
  0
POLYLINE
  8
TopCopper
 66
1
 10
0.000000
 20
0.000000
 30
0.000000
 40
0.952500
 41
0.952500
 70
1
  0
VERTEX
  8
TopCopper
 42
1.000000
 10
346.932250
 20
358.089200
  0
VERTEX
  8
TopCopper
 42
1.000000
 10
347.884750
 20
358.089200
  0
SEQEND
  0
POLYLINE
  8
TopCopper
 66
1
 10
0.000000
 20
0.000000
 30
0.000000
 40
1.460500
 41
1.460500
 70
1
  0
VERTEX
  8
TopCopper
 42
1.000000
 10
338.169250
 20
350.596200
  0
VERTEX
  8
TopCopper
 42
1.000000
 10
339.629750
 20
350.596200
  0
SEQEND
  0
POLYLINE
  8
TopCopper
 66
1
 10
0.000000
 20
0.000000
 30
0.000000
 40
1.460500
 41
1.460500
 70
1
  0
VERTEX
  8
TopCopper
 42
1.000000
 10
350.183450
 20
350.596200
  0
VERTEX
  8
TopCopper
 42
1.000000
 10
351.643950
 20
350.596200
  0
SEQEND
  0
POLYLINE
  8
TopCopper
 66
1
 10
0.000000
 20
0.000000
 30
0.000000
 40
2.540000
 41
2.540000
 70
1
  0
VERTEX
  8
TopCopper
 42
1.000000
 10
328.129900
 20
372.110000
  0
VERTEX
  8
TopCopper
 42
1.000000
 10
330.669900
 20
372.110000
  0
SEQEND
  0
POLYLINE
  8
TopCopper
 66
1
 10
0.000000
 20
0.000000
 30
0.000000
 40
2.540000
 41
2.540000
 70
1
  0
VERTEX
  8
TopCopper
 42
1.000000
 10
328.129900
 20
339.090000
  0
VERTEX
  8
TopCopper
 42
1.000000
 10
330.669900
 20
339.090000
  0
SEQEND
  0
POLYLINE
  8
TopCopper
 66
1
 10
0.000000
 20
0.000000
 30
0.000000
 40
2.540000
 41
2.540000
 70
1
  0
VERTEX
  8
TopCopper
 42
1.000000
 10
482.130100
 20
372.110000
  0
VERTEX
  8
TopCopper
 42
1.000000
 10
484.670100
 20
372.110000
  0
SEQEND
  0
POLYLINE
  8
TopCopper
 66
1
 10
0.000000
 20
0.000000
 30
0.000000
 40
2.540000
 41
2.540000
 70
1
  0
VERTEX
  8
TopCopper
 42
1.000000
 10
482.130100
 20
339.090000
  0
VERTEX
  8
TopCopper
 42
1.000000
 10
484.670100
 20
339.090000
  0
SEQEND
  0
POLYLINE
  8
BottomCopper
 66
1
 10
0.000000
 20
0.000000
 30
0.000000
 40
0.190500
 41
0.190500
 70
1
  0
VERTEX
  8
BottomCopper
 10
420.960550
 20
361.397550
  0
VERTEX
  8
BottomCopper
 10
420.960550
 20
362.350050
  0
VERTEX
  8
BottomCopper
 10
420.770050
 20
362.350050
  0
VERTEX
  8
BottomCopper
 10
420.770050
 20
361.397550
  0
SEQEND
  0
POLYLINE
  8
BottomCopper
 66
1
 10
0.000000
 20
0.000000
 30
0.000000
 40
0.190500
 41
0.190500
 70
1
  0
VERTEX
  8
BottomCopper
 10
421.620950
 20
361.397550
  0
VERTEX
  8
BottomCopper
 10
421.620950
 20
362.350050
  0
VERTEX
  8
BottomCopper
 10
421.430450
 20
362.350050
  0
VERTEX
  8
BottomCopper
 10
421.430450
 20
361.397550
  0
SEQEND
  0
POLYLINE
  8
BottomCopper
 66
1
 10
0.000000
 20
0.000000
 30
0.000000
 40
0.190500
 41
0.190500
 70
1
  0
VERTEX
  8
BottomCopper
 10
422.255950
 20
361.397550
  0
VERTEX
  8
BottomCopper
 10
422.255950
 20
362.350050
  0
VERTEX
  8
BottomCopper
 10
422.065450
 20
362.350050
  0
VERTEX
  8
BottomCopper
 10
422.065450
 20
361.397550
  0
SEQEND
  0
POLYLINE
  8
BottomCopper
 66
1
 10
0.000000
 20
0.000000
 30
0.000000
 40
0.190500
 41
0.190500
 70
1
  0
VERTEX
  8
BottomCopper
 10
422.916350
 20
361.397550
  0
VERTEX
  8
BottomCopper
 10
422.916350
 20
362.350050
  0
VERTEX
  8
BottomCopper
 10
422.725850
 20
362.350050
  0
VERTEX
  8
BottomCopper
 10
422.725850
 20
361.397550
  0
SEQEND
  0
POLYLINE
  8
BottomCopper
 66
1
 10
0.000000
 20
0.000000
 30
0.000000
 40
0.190500
 41
0.190500
 70
1
  0
VERTEX
  8
BottomCopper
 10
423.551350
 20
361.397550
  0
VERTEX
  8
BottomCopper
 10
423.551350
 20
362.350050
  0
VERTEX
  8
BottomCopper
 10
423.360850
 20
362.350050
  0
VERTEX
  8
BottomCopper
 10
423.360850
 20
361.397550
  0
SEQEND
  0
POLYLINE
  8
BottomCopper
 66
1
 10
0.000000
 20
0.000000
 30
0.000000
 40
0.190500
 41
0.190500
 70
1
  0
VERTEX
  8
BottomCopper
 10
424.211750
 20
361.397550
  0
VERTEX
  8
BottomCopper
 10
424.211750
 20
362.350050
  0
VERTEX
  8
BottomCopper
 10
424.021250
 20
362.350050
  0
VERTEX
  8
BottomCopper
 10
424.021250
 20
361.397550
  0
SEQEND
  0
POLYLINE
  8
BottomCopper
 66
1
 10
0.000000
 20
0.000000
 30
0.000000
 40
0.190500
 41
0.190500
 70
1
  0
VERTEX
  8
BottomCopper
 10
424.872150
 20
361.397550
  0
VERTEX
  8
BottomCopper
 10
424.872150
 20
362.350050
  0
VERTEX
  8
BottomCopper
 10
424.681650
 20
362.350050
  0
VERTEX
  8
BottomCopper
 10
424.681650
 20
361.397550
  0
SEQEND
  0
POLYLINE
  8
BottomCopper
 66
1
 10
0.000000
 20
0.000000
 30
0.000000
 40
0.190500
 41
0.190500
 70
1
  0
VERTEX
  8
BottomCopper
 10
425.507150
 20
361.397550
  0
VERTEX
  8
BottomCopper
 10
425.507150
 20
362.350050
  0
VERTEX
  8
BottomCopper
 10
425.316650
 20
362.350050
  0
VERTEX
  8
BottomCopper
 10
425.316650
 20
361.397550
  0
SEQEND
  0
POLYLINE
  8
BottomCopper
 66
1
 10
0.000000
 20
0.000000
 30
0.000000
 40
0.190500
 41
0.190500
 70
1
  0
VERTEX
  8
BottomCopper
 10
426.167550
 20
361.397550
  0
VERTEX
  8
BottomCopper
 10
426.167550
 20
362.350050
  0
VERTEX
  8
BottomCopper
 10
425.977050
 20
362.350050
  0
VERTEX
  8
BottomCopper
 10
425.977050
 20
361.397550
  0
SEQEND
  0
POLYLINE
  8
BottomCopper
 66
1
 10
0.000000
 20
0.000000
 30
0.000000
 40
0.190500
 41
0.190500
 70
1
  0
VERTEX
  8
BottomCopper
 10
426.802550
 20
361.397550
  0
VERTEX
  8
BottomCopper
 10
426.802550
 20
362.350050
  0
VERTEX
  8
BottomCopper
 10
426.612050
 20
362.350050
  0
VERTEX
  8
BottomCopper
 10
426.612050
 20
361.397550
  0
SEQEND
  0
POLYLINE
  8
BottomCopper
 66
1
 10
0.000000
 20
0.000000
 30
0.000000
 40
0.190500
 41
0.190500
 70
1
  0
VERTEX
  8
BottomCopper
 10
426.802550
 20
355.403150
  0
VERTEX
  8
BottomCopper
 10
426.802550
 20
356.355650
  0
VERTEX
  8
BottomCopper
 10
426.612050
 20
356.355650
  0
VERTEX
  8
BottomCopper
 10
426.612050
 20
355.403150
  0
SEQEND
  0
POLYLINE
  8
BottomCopper
 66
1
 10
0.000000
 20
0.000000
 30
0.000000
 40
0.190500
 41
0.190500
 70
1
  0
VERTEX
  8
BottomCopper
 10
426.167550
 20
355.403150
  0
VERTEX
  8
BottomCopper
 10
426.167550
 20
356.355650
  0
VERTEX
  8
BottomCopper
 10
425.977050
 20
356.355650
  0
VERTEX
  8
BottomCopper
 10
425.977050
 20
355.403150
  0
SEQEND
  0
POLYLINE
  8
BottomCopper
 66
1
 10
0.000000
 20
0.000000
 30
0.000000
 40
0.190500
 41
0.190500
 70
1
  0
VERTEX
  8
BottomCopper
 10
425.507150
 20
355.403150
  0
VERTEX
  8
BottomCopper
 10
425.507150
 20
356.355650
  0
VERTEX
  8
BottomCopper
 10
425.316650
 20
356.355650
  0
VERTEX
  8
BottomCopper
 10
425.316650
 20
355.403150
  0
SEQEND
  0
POLYLINE
  8
BottomCopper
 66
1
 10
0.000000
 20
0.000000
 30
0.000000
 40
0.190500
 41
0.190500
 70
1
  0
VERTEX
  8
BottomCopper
 10
424.872150
 20
355.403150
  0
VERTEX
  8
BottomCopper
 10
424.872150
 20
356.355650
  0
VERTEX
  8
BottomCopper
 10
424.681650
 20
356.355650
  0
VERTEX
  8
BottomCopper
 10
424.681650
 20
355.403150
  0
SEQEND
  0
POLYLINE
  8
BottomCopper
 66
1
 10
0.000000
 20
0.000000
 30
0.000000
 40
0.190500
 41
0.190500
 70
1
  0
VERTEX
  8
BottomCopper
 10
424.211750
 20
355.403150
  0
VERTEX
  8
BottomCopper
 10
424.211750
 20
356.355650
  0
VERTEX
  8
BottomCopper
 10
424.021250
 20
356.355650
  0
VERTEX
  8
BottomCopper
 10
424.021250
 20
355.403150
  0
SEQEND
  0
POLYLINE
  8
BottomCopper
 66
1
 10
0.000000
 20
0.000000
 30
0.000000
 40
0.190500
 41
0.190500
 70
1
  0
VERTEX
  8
BottomCopper
 10
423.551350
 20
355.403150
  0
VERTEX
  8
BottomCopper
 10
423.551350
 20
356.355650
  0
VERTEX
  8
BottomCopper
 10
423.360850
 20
356.355650
  0
VERTEX
  8
BottomCopper
 10
423.360850
 20
355.403150
  0
SEQEND
  0
POLYLINE
  8
BottomCopper
 66
1
 10
0.000000
 20
0.000000
 30
0.000000
 40
0.190500
 41
0.190500
 70
1
  0
VERTEX
  8
BottomCopper
 10
422.916350
 20
355.403150
  0
VERTEX
  8
BottomCopper
 10
422.916350
 20
356.355650
  0
VERTEX
  8
BottomCopper
 10
422.725850
 20
356.355650
  0
VERTEX
  8
BottomCopper
 10
422.725850
 20
355.403150
  0
SEQEND
  0
POLYLINE
  8
BottomCopper
 66
1
 10
0.000000
 20
0.000000
 30
0.000000
 40
0.190500
 41
0.190500
 70
1
  0
VERTEX
  8
BottomCopper
 10
422.255950
 20
355.403150
  0
VERTEX
  8
BottomCopper
 10
422.255950
 20
356.355650
  0
VERTEX
  8
BottomCopper
 10
422.065450
 20
356.355650
  0
VERTEX
  8
BottomCopper
 10
422.065450
 20
355.403150
  0
SEQEND
  0
POLYLINE
  8
BottomCopper
 66
1
 10
0.000000
 20
0.000000
 30
0.000000
 40
0.190500
 41
0.190500
 70
1
  0
VERTEX
  8
BottomCopper
 10
421.620950
 20
355.403150
  0
VERTEX
  8
BottomCopper
 10
421.620950
 20
356.355650
  0
VERTEX
  8
BottomCopper
 10
421.430450
 20
356.355650
  0
VERTEX
  8
BottomCopper
 10
421.430450
 20
355.403150
  0
SEQEND
  0
POLYLINE
  8
BottomCopper
 66
1
 10
0.000000
 20
0.000000
 30
0.000000
 40
0.190500
 41
0.190500
 70
1
  0
VERTEX
  8
BottomCopper
 10
420.960550
 20
355.403150
  0
VERTEX
  8
BottomCopper
 10
420.960550
 20
356.355650
  0
VERTEX
  8
BottomCopper
 10
420.770050
 20
356.355650
  0
VERTEX
  8
BottomCopper
 10
420.770050
 20
355.403150
  0
SEQEND
  0
POLYLINE
  8
BottomCopper
 66
1
 10
0.000000
 20
0.000000
 30
0.000000
 40
0.762000
 41
0.762000
 70
1
  0
VERTEX
  8
BottomCopper
 42
1.000000
 10
455.180700
 20
337.591400
  0
VERTEX
  8
BottomCopper
 42
1.000000
 10
455.942700
 20
337.591400
  0
SEQEND
  0
POLYLINE
  8
BottomCopper
 66
1
 10
0.000000
 20
0.000000
 30
0.000000
 40
0.762000
 41
0.762000
 70
1
  0
VERTEX
  8
BottomCopper
 42
1.000000
 10
453.174100
 20
337.591400
  0
VERTEX
  8
BottomCopper
 42
1.000000
 10
453.936100
 20
337.591400
  0
SEQEND
  0
POLYLINE
  8
BottomCopper
 66
1
 10
0.000000
 20
0.000000
 30
0.000000
 40
0.762000
 41
0.762000
 70
1
  0
VERTEX
  8
BottomCopper
 42
1.000000
 10
451.167500
 20
337.591400
  0
VERTEX
  8
BottomCopper
 42
1.000000
 10
451.929500
 20
337.591400
  0
SEQEND
  0
POLYLINE
  8
BottomCopper
 66
1
 10
0.000000
 20
0.000000
 30
0.000000
 40
0.762000
 41
0.762000
 70
1
  0
VERTEX
  8
BottomCopper
 42
1.000000
 10
405.168100
 20
337.591400
  0
VERTEX
  8
BottomCopper
 42
1.000000
 10
405.930100
 20
337.591400
  0
SEQEND
  0
POLYLINE
  8
BottomCopper
 66
1
 10
0.000000
 20
0.000000
 30
0.000000
 40
0.762000
 41
0.762000
 70
1
  0
VERTEX
  8
BottomCopper
 42
1.000000
 10
403.186900
 20
337.591400
  0
VERTEX
  8
BottomCopper
 42
1.000000
 10
403.948900
 20
337.591400
  0
SEQEND
  0
POLYLINE
  8
BottomCopper
 66
1
 10
0.000000
 20
0.000000
 30
0.000000
 40
0.762000
 41
0.762000
 70
1
  0
VERTEX
  8
BottomCopper
 42
1.000000
 10
401.180300
 20
337.591400
  0
VERTEX
  8
BottomCopper
 42
1.000000
 10
401.942300
 20
337.591400
  0
SEQEND
  0
POLYLINE
  8
BottomCopper
 66
1
 10
0.000000
 20
0.000000
 30
0.000000
 40
0.762000
 41
0.762000
 70
1
  0
VERTEX
  8
BottomCopper
 42
1.000000
 10
399.173700
 20
337.591400
  0
VERTEX
  8
BottomCopper
 42
1.000000
 10
399.935700
 20
337.591400
  0
SEQEND
  0
POLYLINE
  8
BottomCopper
 66
1
 10
0.000000
 20
0.000000
 30
0.000000
 40
0.762000
 41
0.762000
 70
1
  0
VERTEX
  8
BottomCopper
 42
1.000000
 10
397.167100
 20
337.591400
  0
VERTEX
  8
BottomCopper
 42
1.000000
 10
397.929100
 20
337.591400
  0
SEQEND
  0
POLYLINE
  8
BottomCopper
 66
1
 10
0.000000
 20
0.000000
 30
0.000000
 40
0.762000
 41
0.762000
 70
1
  0
VERTEX
  8
BottomCopper
 42
1.000000
 10
395.185900
 20
337.591400
  0
VERTEX
  8
BottomCopper
 42
1.000000
 10
395.947900
 20
337.591400
  0
SEQEND
  0
POLYLINE
  8
BottomCopper
 66
1
 10
0.000000
 20
0.000000
 30
0.000000
 40
0.762000
 41
0.762000
 70
1
  0
VERTEX
  8
BottomCopper
 42
1.000000
 10
393.179300
 20
337.591400
  0
VERTEX
  8
BottomCopper
 42
1.000000
 10
393.941300
 20
337.591400
  0
SEQEND
  0
POLYLINE
  8
BottomCopper
 66
1
 10
0.000000
 20
0.000000
 30
0.000000
 40
0.762000
 41
0.762000
 70
1
  0
VERTEX
  8
BottomCopper
 42
1.000000
 10
391.172700
 20
337.591400
  0
VERTEX
  8
BottomCopper
 42
1.000000
 10
391.934700
 20
337.591400
  0
SEQEND
  0
POLYLINE
  8
BottomCopper
 66
1
 10
0.000000
 20
0.000000
 30
0.000000
 40
0.762000
 41
0.762000
 70
1
  0
VERTEX
  8
BottomCopper
 42
1.000000
 10
389.166100
 20
337.591400
  0
VERTEX
  8
BottomCopper
 42
1.000000
 10
389.928100
 20
337.591400
  0
SEQEND
  0
POLYLINE
  8
BottomCopper
 66
1
 10
0.000000
 20
0.000000
 30
0.000000
 40
0.762000
 41
0.762000
 70
1
  0
VERTEX
  8
BottomCopper
 42
1.000000
 10
387.184900
 20
337.591400
  0
VERTEX
  8
BottomCopper
 42
1.000000
 10
387.946900
 20
337.591400
  0
SEQEND
  0
POLYLINE
  8
BottomCopper
 66
1
 10
0.000000
 20
0.000000
 30
0.000000
 40
0.762000
 41
0.762000
 70
1
  0
VERTEX
  8
BottomCopper
 42
1.000000
 10
385.178300
 20
337.591400
  0
VERTEX
  8
BottomCopper
 42
1.000000
 10
385.940300
 20
337.591400
  0
SEQEND
  0
POLYLINE
  8
BottomCopper
 66
1
 10
0.000000
 20
0.000000
 30
0.000000
 40
0.762000
 41
0.762000
 70
1
  0
VERTEX
  8
BottomCopper
 42
1.000000
 10
383.171700
 20
337.591400
  0
VERTEX
  8
BottomCopper
 42
1.000000
 10
383.933700
 20
337.591400
  0
SEQEND
  0
POLYLINE
  8
BottomCopper
 66
1
 10
0.000000
 20
0.000000
 30
0.000000
 40
0.762000
 41
0.762000
 70
1
  0
VERTEX
  8
BottomCopper
 42
1.000000
 10
381.165100
 20
337.591400
  0
VERTEX
  8
BottomCopper
 42
1.000000
 10
381.927100
 20
337.591400
  0
SEQEND
  0
POLYLINE
  8
BottomCopper
 66
1
 10
0.000000
 20
0.000000
 30
0.000000
 40
0.762000
 41
0.762000
 70
1
  0
VERTEX
  8
BottomCopper
 42
1.000000
 10
379.183900
 20
337.591400
  0
VERTEX
  8
BottomCopper
 42
1.000000
 10
379.945900
 20
337.591400
  0
SEQEND
  0
POLYLINE
  8
BottomCopper
 66
1
 10
0.000000
 20
0.000000
 30
0.000000
 40
0.762000
 41
0.762000
 70
1
  0
VERTEX
  8
BottomCopper
 42
1.000000
 10
377.177300
 20
337.591400
  0
VERTEX
  8
BottomCopper
 42
1.000000
 10
377.939300
 20
337.591400
  0
SEQEND
  0
POLYLINE
  8
BottomCopper
 66
1
 10
0.000000
 20
0.000000
 30
0.000000
 40
0.762000
 41
0.762000
 70
1
  0
VERTEX
  8
BottomCopper
 42
1.000000
 10
375.170700
 20
337.591400
  0
VERTEX
  8
BottomCopper
 42
1.000000
 10
375.932700
 20
337.591400
  0
SEQEND
  0
POLYLINE
  8
BottomCopper
 66
1
 10
0.000000
 20
0.000000
 30
0.000000
 40
0.762000
 41
0.762000
 70
1
  0
VERTEX
  8
BottomCopper
 42
1.000000
 10
373.164100
 20
337.591400
  0
VERTEX
  8
BottomCopper
 42
1.000000
 10
373.926100
 20
337.591400
  0
SEQEND
  0
POLYLINE
  8
BottomCopper
 66
1
 10
0.000000
 20
0.000000
 30
0.000000
 40
0.762000
 41
0.762000
 70
1
  0
VERTEX
  8
BottomCopper
 42
1.000000
 10
371.182900
 20
337.591400
  0
VERTEX
  8
BottomCopper
 42
1.000000
 10
371.944900
 20
337.591400
  0
SEQEND
  0
POLYLINE
  8
BottomCopper
 66
1
 10
0.000000
 20
0.000000
 30
0.000000
 40
0.762000
 41
0.762000
 70
1
  0
VERTEX
  8
BottomCopper
 42
1.000000
 10
369.176300
 20
337.591400
  0
VERTEX
  8
BottomCopper
 42
1.000000
 10
369.938300
 20
337.591400
  0
SEQEND
  0
POLYLINE
  8
BottomCopper
 66
1
 10
0.000000
 20
0.000000
 30
0.000000
 40
0.762000
 41
0.762000
 70
1
  0
VERTEX
  8
BottomCopper
 42
1.000000
 10
367.169700
 20
337.591400
  0
VERTEX
  8
BottomCopper
 42
1.000000
 10
367.931700
 20
337.591400
  0
SEQEND
  0
POLYLINE
  8
BottomCopper
 66
1
 10
0.000000
 20
0.000000
 30
0.000000
 40
0.762000
 41
0.762000
 70
1
  0
VERTEX
  8
BottomCopper
 42
1.000000
 10
361.175300
 20
337.591400
  0
VERTEX
  8
BottomCopper
 42
1.000000
 10
361.937300
 20
337.591400
  0
SEQEND
  0
POLYLINE
  8
BottomCopper
 66
1
 10
0.000000
 20
0.000000
 30
0.000000
 40
0.762000
 41
0.762000
 70
1
  0
VERTEX
  8
BottomCopper
 42
1.000000
 10
359.168700
 20
337.591400
  0
VERTEX
  8
BottomCopper
 42
1.000000
 10
359.930700
 20
337.591400
  0
SEQEND
  0
POLYLINE
  8
BottomCopper
 66
1
 10
0.000000
 20
0.000000
 30
0.000000
 40
0.762000
 41
0.762000
 70
1
  0
VERTEX
  8
BottomCopper
 42
1.000000
 10
357.187500
 20
337.591400
  0
VERTEX
  8
BottomCopper
 42
1.000000
 10
357.949500
 20
337.591400
  0
SEQEND
  0
POLYLINE
  8
BottomCopper
 66
1
 10
0.000000
 20
0.000000
 30
0.000000
 40
0.317500
 41
0.317500
 70
1
  0
VERTEX
  8
BottomCopper
 10
328.555350
 20
355.492050
  0
VERTEX
  8
BottomCopper
 10
328.555350
 20
355.809550
  0
VERTEX
  8
BottomCopper
 10
327.602850
 20
355.809550
  0
VERTEX
  8
BottomCopper
 10
327.602850
 20
355.492050
  0
SEQEND
  0
POLYLINE
  8
BottomCopper
 66
1
 10
0.000000
 20
0.000000
 30
0.000000
 40
0.317500
 41
0.317500
 70
1
  0
VERTEX
  8
BottomCopper
 10
328.555350
 20
356.762050
  0
VERTEX
  8
BottomCopper
 10
328.555350
 20
357.079550
  0
VERTEX
  8
BottomCopper
 10
327.602850
 20
357.079550
  0
VERTEX
  8
BottomCopper
 10
327.602850
 20
356.762050
  0
SEQEND
  0
POLYLINE
  8
BottomCopper
 66
1
 10
0.000000
 20
0.000000
 30
0.000000
 40
0.317500
 41
0.317500
 70
1
  0
VERTEX
  8
BottomCopper
 10
328.555350
 20
358.032050
  0
VERTEX
  8
BottomCopper
 10
328.555350
 20
358.349550
  0
VERTEX
  8
BottomCopper
 10
327.602850
 20
358.349550
  0
VERTEX
  8
BottomCopper
 10
327.602850
 20
358.032050
  0
SEQEND
  0
POLYLINE
  8
BottomCopper
 66
1
 10
0.000000
 20
0.000000
 30
0.000000
 40
0.317500
 41
0.317500
 70
1
  0
VERTEX
  8
BottomCopper
 10
328.555350
 20
359.302050
  0
VERTEX
  8
BottomCopper
 10
328.555350
 20
359.619550
  0
VERTEX
  8
BottomCopper
 10
327.602850
 20
359.619550
  0
VERTEX
  8
BottomCopper
 10
327.602850
 20
359.302050
  0
SEQEND
  0
POLYLINE
  8
BottomCopper
 66
1
 10
0.000000
 20
0.000000
 30
0.000000
 40
0.317500
 41
0.317500
 70
1
  0
VERTEX
  8
BottomCopper
 10
328.555350
 20
360.572050
  0
VERTEX
  8
BottomCopper
 10
328.555350
 20
360.889550
  0
VERTEX
  8
BottomCopper
 10
327.602850
 20
360.889550
  0
VERTEX
  8
BottomCopper
 10
327.602850
 20
360.572050
  0
SEQEND
  0
POLYLINE
  8
BottomCopper
 66
1
 10
0.000000
 20
0.000000
 30
0.000000
 40
0.317500
 41
0.317500
 70
1
  0
VERTEX
  8
BottomCopper
 10
328.555350
 20
361.842050
  0
VERTEX
  8
BottomCopper
 10
328.555350
 20
362.159550
  0
VERTEX
  8
BottomCopper
 10
327.602850
 20
362.159550
  0
VERTEX
  8
BottomCopper
 10
327.602850
 20
361.842050
  0
SEQEND
  0
POLYLINE
  8
BottomCopper
 66
1
 10
0.000000
 20
0.000000
 30
0.000000
 40
0.317500
 41
0.317500
 70
1
  0
VERTEX
  8
BottomCopper
 10
328.555350
 20
363.112050
  0
VERTEX
  8
BottomCopper
 10
328.555350
 20
363.429550
  0
VERTEX
  8
BottomCopper
 10
327.602850
 20
363.429550
  0
VERTEX
  8
BottomCopper
 10
327.602850
 20
363.112050
  0
SEQEND
  0
POLYLINE
  8
BottomCopper
 66
1
 10
0.000000
 20
0.000000
 30
0.000000
 40
0.317500
 41
0.317500
 70
1
  0
VERTEX
  8
BottomCopper
 10
328.555350
 20
364.382050
  0
VERTEX
  8
BottomCopper
 10
328.555350
 20
364.699550
  0
VERTEX
  8
BottomCopper
 10
327.602850
 20
364.699550
  0
VERTEX
  8
BottomCopper
 10
327.602850
 20
364.382050
  0
SEQEND
  0
POLYLINE
  8
BottomCopper
 66
1
 10
0.000000
 20
0.000000
 30
0.000000
 40
0.508000
 41
0.508000
 70
1
  0
VERTEX
  8
BottomCopper
 10
332.651100
 20
351.586800
  0
VERTEX
  8
BottomCopper
 10
332.651100
 20
352.094800
  0
VERTEX
  8
BottomCopper
 10
331.127100
 20
352.094800
  0
VERTEX
  8
BottomCopper
 10
331.127100
 20
351.586800
  0
SEQEND
  0
POLYLINE
  8
BottomCopper
 66
1
 10
0.000000
 20
0.000000
 30
0.000000
 40
0.508000
 41
0.508000
 70
1
  0
VERTEX
  8
BottomCopper
 10
332.651100
 20
368.096800
  0
VERTEX
  8
BottomCopper
 10
332.651100
 20
368.604800
  0
VERTEX
  8
BottomCopper
 10
331.127100
 20
368.604800
  0
VERTEX
  8
BottomCopper
 10
331.127100
 20
368.096800
  0
SEQEND
  0
POLYLINE
  8
BottomCopper
 66
1
 10
0.000000
 20
0.000000
 30
0.000000
 40
0.381000
 41
0.381000
 70
1
  0
VERTEX
  8
BottomCopper
 10
430.911000
 20
372.910100
  0
VERTEX
  8
BottomCopper
 10
430.911000
 20
374.307100
  0
VERTEX
  8
BottomCopper
 10
430.530000
 20
374.307100
  0
VERTEX
  8
BottomCopper
 10
430.530000
 20
372.910100
  0
SEQEND
  0
POLYLINE
  8
BottomCopper
 66
1
 10
0.000000
 20
0.000000
 30
0.000000
 40
0.381000
 41
0.381000
 70
1
  0
VERTEX
  8
BottomCopper
 10
432.181000
 20
372.910100
  0
VERTEX
  8
BottomCopper
 10
432.181000
 20
374.307100
  0
VERTEX
  8
BottomCopper
 10
431.800000
 20
374.307100
  0
VERTEX
  8
BottomCopper
 10
431.800000
 20
372.910100
  0
SEQEND
  0
POLYLINE
  8
BottomCopper
 66
1
 10
0.000000
 20
0.000000
 30
0.000000
 40
0.381000
 41
0.381000
 70
1
  0
VERTEX
  8
BottomCopper
 10
433.451000
 20
372.910100
  0
VERTEX
  8
BottomCopper
 10
433.451000
 20
374.307100
  0
VERTEX
  8
BottomCopper
 10
433.070000
 20
374.307100
  0
VERTEX
  8
BottomCopper
 10
433.070000
 20
372.910100
  0
SEQEND
  0
POLYLINE
  8
BottomCopper
 66
1
 10
0.000000
 20
0.000000
 30
0.000000
 40
0.381000
 41
0.381000
 70
1
  0
VERTEX
  8
BottomCopper
 10
434.721000
 20
372.910100
  0
VERTEX
  8
BottomCopper
 10
434.721000
 20
374.307100
  0
VERTEX
  8
BottomCopper
 10
434.340000
 20
374.307100
  0
VERTEX
  8
BottomCopper
 10
434.340000
 20
372.910100
  0
SEQEND
  0
POLYLINE
  8
BottomCopper
 66
1
 10
0.000000
 20
0.000000
 30
0.000000
 40
0.381000
 41
0.381000
 70
1
  0
VERTEX
  8
BottomCopper
 10
435.991000
 20
372.910100
  0
VERTEX
  8
BottomCopper
 10
435.991000
 20
374.307100
  0
VERTEX
  8
BottomCopper
 10
435.610000
 20
374.307100
  0
VERTEX
  8
BottomCopper
 10
435.610000
 20
372.910100
  0
SEQEND
  0
POLYLINE
  8
BottomCopper
 66
1
 10
0.000000
 20
0.000000
 30
0.000000
 40
0.381000
 41
0.381000
 70
1
  0
VERTEX
  8
BottomCopper
 10
437.261000
 20
372.910100
  0
VERTEX
  8
BottomCopper
 10
437.261000
 20
374.307100
  0
VERTEX
  8
BottomCopper
 10
436.880000
 20
374.307100
  0
VERTEX
  8
BottomCopper
 10
436.880000
 20
372.910100
  0
SEQEND
  0
POLYLINE
  8
BottomCopper
 66
1
 10
0.000000
 20
0.000000
 30
0.000000
 40
0.381000
 41
0.381000
 70
1
  0
VERTEX
  8
BottomCopper
 10
438.531000
 20
372.910100
  0
VERTEX
  8
BottomCopper
 10
438.531000
 20
374.307100
  0
VERTEX
  8
BottomCopper
 10
438.150000
 20
374.307100
  0
VERTEX
  8
BottomCopper
 10
438.150000
 20
372.910100
  0
SEQEND
  0
POLYLINE
  8
BottomCopper
 66
1
 10
0.000000
 20
0.000000
 30
0.000000
 40
0.381000
 41
0.381000
 70
1
  0
VERTEX
  8
BottomCopper
 10
439.801000
 20
372.910100
  0
VERTEX
  8
BottomCopper
 10
439.801000
 20
374.307100
  0
VERTEX
  8
BottomCopper
 10
439.420000
 20
374.307100
  0
VERTEX
  8
BottomCopper
 10
439.420000
 20
372.910100
  0
SEQEND
  0
POLYLINE
  8
BottomCopper
 66
1
 10
0.000000
 20
0.000000
 30
0.000000
 40
0.381000
 41
0.381000
 70
1
  0
VERTEX
  8
BottomCopper
 10
441.071000
 20
372.910100
  0
VERTEX
  8
BottomCopper
 10
441.071000
 20
374.307100
  0
VERTEX
  8
BottomCopper
 10
440.690000
 20
374.307100
  0
VERTEX
  8
BottomCopper
 10
440.690000
 20
372.910100
  0
SEQEND
  0
POLYLINE
  8
BottomCopper
 66
1
 10
0.000000
 20
0.000000
 30
0.000000
 40
0.381000
 41
0.381000
 70
1
  0
VERTEX
  8
BottomCopper
 10
441.071000
 20
363.766100
  0
VERTEX
  8
BottomCopper
 10
441.071000
 20
365.163100
  0
VERTEX
  8
BottomCopper
 10
440.690000
 20
365.163100
  0
VERTEX
  8
BottomCopper
 10
440.690000
 20
363.766100
  0
SEQEND
  0
POLYLINE
  8
BottomCopper
 66
1
 10
0.000000
 20
0.000000
 30
0.000000
 40
0.381000
 41
0.381000
 70
1
  0
VERTEX
  8
BottomCopper
 10
439.801000
 20
363.766100
  0
VERTEX
  8
BottomCopper
 10
439.801000
 20
365.163100
  0
VERTEX
  8
BottomCopper
 10
439.420000
 20
365.163100
  0
VERTEX
  8
BottomCopper
 10
439.420000
 20
363.766100
  0
SEQEND
  0
POLYLINE
  8
BottomCopper
 66
1
 10
0.000000
 20
0.000000
 30
0.000000
 40
0.381000
 41
0.381000
 70
1
  0
VERTEX
  8
BottomCopper
 10
438.531000
 20
363.766100
  0
VERTEX
  8
BottomCopper
 10
438.531000
 20
365.163100
  0
VERTEX
  8
BottomCopper
 10
438.150000
 20
365.163100
  0
VERTEX
  8
BottomCopper
 10
438.150000
 20
363.766100
  0
SEQEND
  0
POLYLINE
  8
BottomCopper
 66
1
 10
0.000000
 20
0.000000
 30
0.000000
 40
0.381000
 41
0.381000
 70
1
  0
VERTEX
  8
BottomCopper
 10
437.261000
 20
363.766100
  0
VERTEX
  8
BottomCopper
 10
437.261000
 20
365.163100
  0
VERTEX
  8
BottomCopper
 10
436.880000
 20
365.163100
  0
VERTEX
  8
BottomCopper
 10
436.880000
 20
363.766100
  0
SEQEND
  0
POLYLINE
  8
BottomCopper
 66
1
 10
0.000000
 20
0.000000
 30
0.000000
 40
0.381000
 41
0.381000
 70
1
  0
VERTEX
  8
BottomCopper
 10
435.991000
 20
363.766100
  0
VERTEX
  8
BottomCopper
 10
435.991000
 20
365.163100
  0
VERTEX
  8
BottomCopper
 10
435.610000
 20
365.163100
  0
VERTEX
  8
BottomCopper
 10
435.610000
 20
363.766100
  0
SEQEND
  0
POLYLINE
  8
BottomCopper
 66
1
 10
0.000000
 20
0.000000
 30
0.000000
 40
0.381000
 41
0.381000
 70
1
  0
VERTEX
  8
BottomCopper
 10
434.721000
 20
363.766100
  0
VERTEX
  8
BottomCopper
 10
434.721000
 20
365.163100
  0
VERTEX
  8
BottomCopper
 10
434.340000
 20
365.163100
  0
VERTEX
  8
BottomCopper
 10
434.340000
 20
363.766100
  0
SEQEND
  0
POLYLINE
  8
BottomCopper
 66
1
 10
0.000000
 20
0.000000
 30
0.000000
 40
0.381000
 41
0.381000
 70
1
  0
VERTEX
  8
BottomCopper
 10
433.451000
 20
363.766100
  0
VERTEX
  8
BottomCopper
 10
433.451000
 20
365.163100
  0
VERTEX
  8
BottomCopper
 10
433.070000
 20
365.163100
  0
VERTEX
  8
BottomCopper
 10
433.070000
 20
363.766100
  0
SEQEND
  0
POLYLINE
  8
BottomCopper
 66
1
 10
0.000000
 20
0.000000
 30
0.000000
 40
0.381000
 41
0.381000
 70
1
  0
VERTEX
  8
BottomCopper
 10
432.181000
 20
363.766100
  0
VERTEX
  8
BottomCopper
 10
432.181000
 20
365.163100
  0
VERTEX
  8
BottomCopper
 10
431.800000
 20
365.163100
  0
VERTEX
  8
BottomCopper
 10
431.800000
 20
363.766100
  0
SEQEND
  0
POLYLINE
  8
BottomCopper
 66
1
 10
0.000000
 20
0.000000
 30
0.000000
 40
0.381000
 41
0.381000
 70
1
  0
VERTEX
  8
BottomCopper
 10
430.911000
 20
363.766100
  0
VERTEX
  8
BottomCopper
 10
430.911000
 20
365.163100
  0
VERTEX
  8
BottomCopper
 10
430.530000
 20
365.163100
  0
VERTEX
  8
BottomCopper
 10
430.530000
 20
363.766100
  0
SEQEND
  0
POLYLINE
  8
BottomCopper
 66
1
 10
0.000000
 20
0.000000
 30
0.000000
 40
0.381000
 41
0.381000
 70
1
  0
VERTEX
  8
BottomCopper
 10
418.211000
 20
350.177100
  0
VERTEX
  8
BottomCopper
 10
418.211000
 20
351.574100
  0
VERTEX
  8
BottomCopper
 10
417.830000
 20
351.574100
  0
VERTEX
  8
BottomCopper
 10
417.830000
 20
350.177100
  0
SEQEND
  0
POLYLINE
  8
BottomCopper
 66
1
 10
0.000000
 20
0.000000
 30
0.000000
 40
0.381000
 41
0.381000
 70
1
  0
VERTEX
  8
BottomCopper
 10
419.481000
 20
350.177100
  0
VERTEX
  8
BottomCopper
 10
419.481000
 20
351.574100
  0
VERTEX
  8
BottomCopper
 10
419.100000
 20
351.574100
  0
VERTEX
  8
BottomCopper
 10
419.100000
 20
350.177100
  0
SEQEND
  0
POLYLINE
  8
BottomCopper
 66
1
 10
0.000000
 20
0.000000
 30
0.000000
 40
0.381000
 41
0.381000
 70
1
  0
VERTEX
  8
BottomCopper
 10
420.751000
 20
350.177100
  0
VERTEX
  8
BottomCopper
 10
420.751000
 20
351.574100
  0
VERTEX
  8
BottomCopper
 10
420.370000
 20
351.574100
  0
VERTEX
  8
BottomCopper
 10
420.370000
 20
350.177100
  0
SEQEND
  0
POLYLINE
  8
BottomCopper
 66
1
 10
0.000000
 20
0.000000
 30
0.000000
 40
0.381000
 41
0.381000
 70
1
  0
VERTEX
  8
BottomCopper
 10
422.021000
 20
350.177100
  0
VERTEX
  8
BottomCopper
 10
422.021000
 20
351.574100
  0
VERTEX
  8
BottomCopper
 10
421.640000
 20
351.574100
  0
VERTEX
  8
BottomCopper
 10
421.640000
 20
350.177100
  0
SEQEND
  0
POLYLINE
  8
BottomCopper
 66
1
 10
0.000000
 20
0.000000
 30
0.000000
 40
0.381000
 41
0.381000
 70
1
  0
VERTEX
  8
BottomCopper
 10
423.291000
 20
350.177100
  0
VERTEX
  8
BottomCopper
 10
423.291000
 20
351.574100
  0
VERTEX
  8
BottomCopper
 10
422.910000
 20
351.574100
  0
VERTEX
  8
BottomCopper
 10
422.910000
 20
350.177100
  0
SEQEND
  0
POLYLINE
  8
BottomCopper
 66
1
 10
0.000000
 20
0.000000
 30
0.000000
 40
0.381000
 41
0.381000
 70
1
  0
VERTEX
  8
BottomCopper
 10
424.561000
 20
350.177100
  0
VERTEX
  8
BottomCopper
 10
424.561000
 20
351.574100
  0
VERTEX
  8
BottomCopper
 10
424.180000
 20
351.574100
  0
VERTEX
  8
BottomCopper
 10
424.180000
 20
350.177100
  0
SEQEND
  0
POLYLINE
  8
BottomCopper
 66
1
 10
0.000000
 20
0.000000
 30
0.000000
 40
0.381000
 41
0.381000
 70
1
  0
VERTEX
  8
BottomCopper
 10
425.831000
 20
350.177100
  0
VERTEX
  8
BottomCopper
 10
425.831000
 20
351.574100
  0
VERTEX
  8
BottomCopper
 10
425.450000
 20
351.574100
  0
VERTEX
  8
BottomCopper
 10
425.450000
 20
350.177100
  0
SEQEND
  0
POLYLINE
  8
BottomCopper
 66
1
 10
0.000000
 20
0.000000
 30
0.000000
 40
0.381000
 41
0.381000
 70
1
  0
VERTEX
  8
BottomCopper
 10
427.101000
 20
350.177100
  0
VERTEX
  8
BottomCopper
 10
427.101000
 20
351.574100
  0
VERTEX
  8
BottomCopper
 10
426.720000
 20
351.574100
  0
VERTEX
  8
BottomCopper
 10
426.720000
 20
350.177100
  0
SEQEND
  0
POLYLINE
  8
BottomCopper
 66
1
 10
0.000000
 20
0.000000
 30
0.000000
 40
0.381000
 41
0.381000
 70
1
  0
VERTEX
  8
BottomCopper
 10
427.101000
 20
344.589100
  0
VERTEX
  8
BottomCopper
 10
427.101000
 20
345.986100
  0
VERTEX
  8
BottomCopper
 10
426.720000
 20
345.986100
  0
VERTEX
  8
BottomCopper
 10
426.720000
 20
344.589100
  0
SEQEND
  0
POLYLINE
  8
BottomCopper
 66
1
 10
0.000000
 20
0.000000
 30
0.000000
 40
0.381000
 41
0.381000
 70
1
  0
VERTEX
  8
BottomCopper
 10
425.831000
 20
344.589100
  0
VERTEX
  8
BottomCopper
 10
425.831000
 20
345.986100
  0
VERTEX
  8
BottomCopper
 10
425.450000
 20
345.986100
  0
VERTEX
  8
BottomCopper
 10
425.450000
 20
344.589100
  0
SEQEND
  0
POLYLINE
  8
BottomCopper
 66
1
 10
0.000000
 20
0.000000
 30
0.000000
 40
0.381000
 41
0.381000
 70
1
  0
VERTEX
  8
BottomCopper
 10
424.561000
 20
344.589100
  0
VERTEX
  8
BottomCopper
 10
424.561000
 20
345.986100
  0
VERTEX
  8
BottomCopper
 10
424.180000
 20
345.986100
  0
VERTEX
  8
BottomCopper
 10
424.180000
 20
344.589100
  0
SEQEND
  0
POLYLINE
  8
BottomCopper
 66
1
 10
0.000000
 20
0.000000
 30
0.000000
 40
0.381000
 41
0.381000
 70
1
  0
VERTEX
  8
BottomCopper
 10
423.291000
 20
344.589100
  0
VERTEX
  8
BottomCopper
 10
423.291000
 20
345.986100
  0
VERTEX
  8
BottomCopper
 10
422.910000
 20
345.986100
  0
VERTEX
  8
BottomCopper
 10
422.910000
 20
344.589100
  0
SEQEND
  0
POLYLINE
  8
BottomCopper
 66
1
 10
0.000000
 20
0.000000
 30
0.000000
 40
0.381000
 41
0.381000
 70
1
  0
VERTEX
  8
BottomCopper
 10
422.021000
 20
344.589100
  0
VERTEX
  8
BottomCopper
 10
422.021000
 20
345.986100
  0
VERTEX
  8
BottomCopper
 10
421.640000
 20
345.986100
  0
VERTEX
  8
BottomCopper
 10
421.640000
 20
344.589100
  0
SEQEND
  0
POLYLINE
  8
BottomCopper
 66
1
 10
0.000000
 20
0.000000
 30
0.000000
 40
0.381000
 41
0.381000
 70
1
  0
VERTEX
  8
BottomCopper
 10
420.751000
 20
344.589100
  0
VERTEX
  8
BottomCopper
 10
420.751000
 20
345.986100
  0
VERTEX
  8
BottomCopper
 10
420.370000
 20
345.986100
  0
VERTEX
  8
BottomCopper
 10
420.370000
 20
344.589100
  0
SEQEND
  0
POLYLINE
  8
BottomCopper
 66
1
 10
0.000000
 20
0.000000
 30
0.000000
 40
0.381000
 41
0.381000
 70
1
  0
VERTEX
  8
BottomCopper
 10
419.481000
 20
344.589100
  0
VERTEX
  8
BottomCopper
 10
419.481000
 20
345.986100
  0
VERTEX
  8
BottomCopper
 10
419.100000
 20
345.986100
  0
VERTEX
  8
BottomCopper
 10
419.100000
 20
344.589100
  0
SEQEND
  0
POLYLINE
  8
BottomCopper
 66
1
 10
0.000000
 20
0.000000
 30
0.000000
 40
0.381000
 41
0.381000
 70
1
  0
VERTEX
  8
BottomCopper
 10
418.211000
 20
344.589100
  0
VERTEX
  8
BottomCopper
 10
418.211000
 20
345.986100
  0
VERTEX
  8
BottomCopper
 10
417.830000
 20
345.986100
  0
VERTEX
  8
BottomCopper
 10
417.830000
 20
344.589100
  0
SEQEND
  0
POLYLINE
  8
BottomCopper
 66
1
 10
0.000000
 20
0.000000
 30
0.000000
 40
0.381000
 41
0.381000
 70
1
  0
VERTEX
  8
BottomCopper
 10
458.851000
 20
359.956100
  0
VERTEX
  8
BottomCopper
 10
458.851000
 20
360.337100
  0
VERTEX
  8
BottomCopper
 10
457.454000
 20
360.337100
  0
VERTEX
  8
BottomCopper
 10
457.454000
 20
359.956100
  0
SEQEND
  0
POLYLINE
  8
BottomCopper
 66
1
 10
0.000000
 20
0.000000
 30
0.000000
 40
0.381000
 41
0.381000
 70
1
  0
VERTEX
  8
BottomCopper
 10
458.851000
 20
358.686100
  0
VERTEX
  8
BottomCopper
 10
458.851000
 20
359.067100
  0
VERTEX
  8
BottomCopper
 10
457.454000
 20
359.067100
  0
VERTEX
  8
BottomCopper
 10
457.454000
 20
358.686100
  0
SEQEND
  0
POLYLINE
  8
BottomCopper
 66
1
 10
0.000000
 20
0.000000
 30
0.000000
 40
0.381000
 41
0.381000
 70
1
  0
VERTEX
  8
BottomCopper
 10
458.851000
 20
357.416100
  0
VERTEX
  8
BottomCopper
 10
458.851000
 20
357.797100
  0
VERTEX
  8
BottomCopper
 10
457.454000
 20
357.797100
  0
VERTEX
  8
BottomCopper
 10
457.454000
 20
357.416100
  0
SEQEND
  0
POLYLINE
  8
BottomCopper
 66
1
 10
0.000000
 20
0.000000
 30
0.000000
 40
0.381000
 41
0.381000
 70
1
  0
VERTEX
  8
BottomCopper
 10
458.851000
 20
356.146100
  0
VERTEX
  8
BottomCopper
 10
458.851000
 20
356.527100
  0
VERTEX
  8
BottomCopper
 10
457.454000
 20
356.527100
  0
VERTEX
  8
BottomCopper
 10
457.454000
 20
356.146100
  0
SEQEND
  0
POLYLINE
  8
BottomCopper
 66
1
 10
0.000000
 20
0.000000
 30
0.000000
 40
0.381000
 41
0.381000
 70
1
  0
VERTEX
  8
BottomCopper
 10
458.851000
 20
354.876100
  0
VERTEX
  8
BottomCopper
 10
458.851000
 20
355.257100
  0
VERTEX
  8
BottomCopper
 10
457.454000
 20
355.257100
  0
VERTEX
  8
BottomCopper
 10
457.454000
 20
354.876100
  0
SEQEND
  0
POLYLINE
  8
BottomCopper
 66
1
 10
0.000000
 20
0.000000
 30
0.000000
 40
0.381000
 41
0.381000
 70
1
  0
VERTEX
  8
BottomCopper
 10
458.851000
 20
353.606100
  0
VERTEX
  8
BottomCopper
 10
458.851000
 20
353.987100
  0
VERTEX
  8
BottomCopper
 10
457.454000
 20
353.987100
  0
VERTEX
  8
BottomCopper
 10
457.454000
 20
353.606100
  0
SEQEND
  0
POLYLINE
  8
BottomCopper
 66
1
 10
0.000000
 20
0.000000
 30
0.000000
 40
0.381000
 41
0.381000
 70
1
  0
VERTEX
  8
BottomCopper
 10
458.851000
 20
352.336100
  0
VERTEX
  8
BottomCopper
 10
458.851000
 20
352.717100
  0
VERTEX
  8
BottomCopper
 10
457.454000
 20
352.717100
  0
VERTEX
  8
BottomCopper
 10
457.454000
 20
352.336100
  0
SEQEND
  0
POLYLINE
  8
BottomCopper
 66
1
 10
0.000000
 20
0.000000
 30
0.000000
 40
0.381000
 41
0.381000
 70
1
  0
VERTEX
  8
BottomCopper
 10
458.851000
 20
351.066100
  0
VERTEX
  8
BottomCopper
 10
458.851000
 20
351.447100
  0
VERTEX
  8
BottomCopper
 10
457.454000
 20
351.447100
  0
VERTEX
  8
BottomCopper
 10
457.454000
 20
351.066100
  0
SEQEND
  0
POLYLINE
  8
BottomCopper
 66
1
 10
0.000000
 20
0.000000
 30
0.000000
 40
0.381000
 41
0.381000
 70
1
  0
VERTEX
  8
BottomCopper
 10
458.851000
 20
349.796100
  0
VERTEX
  8
BottomCopper
 10
458.851000
 20
350.177100
  0
VERTEX
  8
BottomCopper
 10
457.454000
 20
350.177100
  0
VERTEX
  8
BottomCopper
 10
457.454000
 20
349.796100
  0
SEQEND
  0
POLYLINE
  8
BottomCopper
 66
1
 10
0.000000
 20
0.000000
 30
0.000000
 40
0.381000
 41
0.381000
 70
1
  0
VERTEX
  8
BottomCopper
 10
449.707000
 20
349.796100
  0
VERTEX
  8
BottomCopper
 10
449.707000
 20
350.177100
  0
VERTEX
  8
BottomCopper
 10
448.310000
 20
350.177100
  0
VERTEX
  8
BottomCopper
 10
448.310000
 20
349.796100
  0
SEQEND
  0
POLYLINE
  8
BottomCopper
 66
1
 10
0.000000
 20
0.000000
 30
0.000000
 40
0.381000
 41
0.381000
 70
1
  0
VERTEX
  8
BottomCopper
 10
449.707000
 20
351.066100
  0
VERTEX
  8
BottomCopper
 10
449.707000
 20
351.447100
  0
VERTEX
  8
BottomCopper
 10
448.310000
 20
351.447100
  0
VERTEX
  8
BottomCopper
 10
448.310000
 20
351.066100
  0
SEQEND
  0
POLYLINE
  8
BottomCopper
 66
1
 10
0.000000
 20
0.000000
 30
0.000000
 40
0.381000
 41
0.381000
 70
1
  0
VERTEX
  8
BottomCopper
 10
449.707000
 20
352.336100
  0
VERTEX
  8
BottomCopper
 10
449.707000
 20
352.717100
  0
VERTEX
  8
BottomCopper
 10
448.310000
 20
352.717100
  0
VERTEX
  8
BottomCopper
 10
448.310000
 20
352.336100
  0
SEQEND
  0
POLYLINE
  8
BottomCopper
 66
1
 10
0.000000
 20
0.000000
 30
0.000000
 40
0.381000
 41
0.381000
 70
1
  0
VERTEX
  8
BottomCopper
 10
449.707000
 20
353.606100
  0
VERTEX
  8
BottomCopper
 10
449.707000
 20
353.987100
  0
VERTEX
  8
BottomCopper
 10
448.310000
 20
353.987100
  0
VERTEX
  8
BottomCopper
 10
448.310000
 20
353.606100
  0
SEQEND
  0
POLYLINE
  8
BottomCopper
 66
1
 10
0.000000
 20
0.000000
 30
0.000000
 40
0.381000
 41
0.381000
 70
1
  0
VERTEX
  8
BottomCopper
 10
449.707000
 20
354.876100
  0
VERTEX
  8
BottomCopper
 10
449.707000
 20
355.257100
  0
VERTEX
  8
BottomCopper
 10
448.310000
 20
355.257100
  0
VERTEX
  8
BottomCopper
 10
448.310000
 20
354.876100
  0
SEQEND
  0
POLYLINE
  8
BottomCopper
 66
1
 10
0.000000
 20
0.000000
 30
0.000000
 40
0.381000
 41
0.381000
 70
1
  0
VERTEX
  8
BottomCopper
 10
449.707000
 20
356.146100
  0
VERTEX
  8
BottomCopper
 10
449.707000
 20
356.527100
  0
VERTEX
  8
BottomCopper
 10
448.310000
 20
356.527100
  0
VERTEX
  8
BottomCopper
 10
448.310000
 20
356.146100
  0
SEQEND
  0
POLYLINE
  8
BottomCopper
 66
1
 10
0.000000
 20
0.000000
 30
0.000000
 40
0.381000
 41
0.381000
 70
1
  0
VERTEX
  8
BottomCopper
 10
449.707000
 20
357.416100
  0
VERTEX
  8
BottomCopper
 10
449.707000
 20
357.797100
  0
VERTEX
  8
BottomCopper
 10
448.310000
 20
357.797100
  0
VERTEX
  8
BottomCopper
 10
448.310000
 20
357.416100
  0
SEQEND
  0
POLYLINE
  8
BottomCopper
 66
1
 10
0.000000
 20
0.000000
 30
0.000000
 40
0.381000
 41
0.381000
 70
1
  0
VERTEX
  8
BottomCopper
 10
449.707000
 20
358.686100
  0
VERTEX
  8
BottomCopper
 10
449.707000
 20
359.067100
  0
VERTEX
  8
BottomCopper
 10
448.310000
 20
359.067100
  0
VERTEX
  8
BottomCopper
 10
448.310000
 20
358.686100
  0
SEQEND
  0
POLYLINE
  8
BottomCopper
 66
1
 10
0.000000
 20
0.000000
 30
0.000000
 40
0.381000
 41
0.381000
 70
1
  0
VERTEX
  8
BottomCopper
 10
449.707000
 20
359.956100
  0
VERTEX
  8
BottomCopper
 10
449.707000
 20
360.337100
  0
VERTEX
  8
BottomCopper
 10
448.310000
 20
360.337100
  0
VERTEX
  8
BottomCopper
 10
448.310000
 20
359.956100
  0
SEQEND
  0
POLYLINE
  8
BottomCopper
 66
1
 10
0.000000
 20
0.000000
 30
0.000000
 40
0.381000
 41
0.381000
 70
1
  0
VERTEX
  8
BottomCopper
 10
360.680000
 20
353.733100
  0
VERTEX
  8
BottomCopper
 10
360.680000
 20
354.114100
  0
VERTEX
  8
BottomCopper
 10
359.283000
 20
354.114100
  0
VERTEX
  8
BottomCopper
 10
359.283000
 20
353.733100
  0
SEQEND
  0
POLYLINE
  8
BottomCopper
 66
1
 10
0.000000
 20
0.000000
 30
0.000000
 40
0.381000
 41
0.381000
 70
1
  0
VERTEX
  8
BottomCopper
 10
360.680000
 20
355.003100
  0
VERTEX
  8
BottomCopper
 10
360.680000
 20
355.384100
  0
VERTEX
  8
BottomCopper
 10
359.283000
 20
355.384100
  0
VERTEX
  8
BottomCopper
 10
359.283000
 20
355.003100
  0
SEQEND
  0
POLYLINE
  8
BottomCopper
 66
1
 10
0.000000
 20
0.000000
 30
0.000000
 40
0.381000
 41
0.381000
 70
1
  0
VERTEX
  8
BottomCopper
 10
360.680000
 20
356.273100
  0
VERTEX
  8
BottomCopper
 10
360.680000
 20
356.654100
  0
VERTEX
  8
BottomCopper
 10
359.283000
 20
356.654100
  0
VERTEX
  8
BottomCopper
 10
359.283000
 20
356.273100
  0
SEQEND
  0
POLYLINE
  8
BottomCopper
 66
1
 10
0.000000
 20
0.000000
 30
0.000000
 40
0.381000
 41
0.381000
 70
1
  0
VERTEX
  8
BottomCopper
 10
360.680000
 20
357.543100
  0
VERTEX
  8
BottomCopper
 10
360.680000
 20
357.924100
  0
VERTEX
  8
BottomCopper
 10
359.283000
 20
357.924100
  0
VERTEX
  8
BottomCopper
 10
359.283000
 20
357.543100
  0
SEQEND
  0
POLYLINE
  8
BottomCopper
 66
1
 10
0.000000
 20
0.000000
 30
0.000000
 40
0.381000
 41
0.381000
 70
1
  0
VERTEX
  8
BottomCopper
 10
366.268000
 20
357.543100
  0
VERTEX
  8
BottomCopper
 10
366.268000
 20
357.924100
  0
VERTEX
  8
BottomCopper
 10
364.871000
 20
357.924100
  0
VERTEX
  8
BottomCopper
 10
364.871000
 20
357.543100
  0
SEQEND
  0
POLYLINE
  8
BottomCopper
 66
1
 10
0.000000
 20
0.000000
 30
0.000000
 40
0.381000
 41
0.381000
 70
1
  0
VERTEX
  8
BottomCopper
 10
366.268000
 20
356.273100
  0
VERTEX
  8
BottomCopper
 10
366.268000
 20
356.654100
  0
VERTEX
  8
BottomCopper
 10
364.871000
 20
356.654100
  0
VERTEX
  8
BottomCopper
 10
364.871000
 20
356.273100
  0
SEQEND
  0
POLYLINE
  8
BottomCopper
 66
1
 10
0.000000
 20
0.000000
 30
0.000000
 40
0.381000
 41
0.381000
 70
1
  0
VERTEX
  8
BottomCopper
 10
366.268000
 20
355.003100
  0
VERTEX
  8
BottomCopper
 10
366.268000
 20
355.384100
  0
VERTEX
  8
BottomCopper
 10
364.871000
 20
355.384100
  0
VERTEX
  8
BottomCopper
 10
364.871000
 20
355.003100
  0
SEQEND
  0
POLYLINE
  8
BottomCopper
 66
1
 10
0.000000
 20
0.000000
 30
0.000000
 40
0.381000
 41
0.381000
 70
1
  0
VERTEX
  8
BottomCopper
 10
366.268000
 20
353.733100
  0
VERTEX
  8
BottomCopper
 10
366.268000
 20
354.114100
  0
VERTEX
  8
BottomCopper
 10
364.871000
 20
354.114100
  0
VERTEX
  8
BottomCopper
 10
364.871000
 20
353.733100
  0
SEQEND
  0
POLYLINE
  8
BottomCopper
 66
1
 10
0.000000
 20
0.000000
 30
0.000000
 40
0.762000
 41
0.762000
 70
1
  0
VERTEX
  8
BottomCopper
 42
1.000000
 10
379.666500
 20
365.861600
  0
VERTEX
  8
BottomCopper
 42
1.000000
 10
380.428500
 20
365.861600
  0
SEQEND
  0
POLYLINE
  8
BottomCopper
 66
1
 10
0.000000
 20
0.000000
 30
0.000000
 40
0.762000
 41
0.762000
 70
1
  0
VERTEX
  8
BottomCopper
 42
1.000000
 10
377.126500
 20
365.861600
  0
VERTEX
  8
BottomCopper
 42
1.000000
 10
377.888500
 20
365.861600
  0
SEQEND
  0
POLYLINE
  8
BottomCopper
 66
1
 10
0.000000
 20
0.000000
 30
0.000000
 40
0.762000
 41
0.762000
 70
1
  0
VERTEX
  8
BottomCopper
 42
1.000000
 10
374.586500
 20
365.861600
  0
VERTEX
  8
BottomCopper
 42
1.000000
 10
375.348500
 20
365.861600
  0
SEQEND
  0
POLYLINE
  8
BottomCopper
 66
1
 10
0.000000
 20
0.000000
 30
0.000000
 40
0.762000
 41
0.762000
 70
1
  0
VERTEX
  8
BottomCopper
 42
1.000000
 10
372.046500
 20
365.861600
  0
VERTEX
  8
BottomCopper
 42
1.000000
 10
372.808500
 20
365.861600
  0
SEQEND
  0
POLYLINE
  8
BottomCopper
 66
1
 10
0.000000
 20
0.000000
 30
0.000000
 40
0.762000
 41
0.762000
 70
1
  0
VERTEX
  8
BottomCopper
 42
1.000000
 10
372.046500
 20
358.241600
  0
VERTEX
  8
BottomCopper
 42
1.000000
 10
372.808500
 20
358.241600
  0
SEQEND
  0
POLYLINE
  8
BottomCopper
 66
1
 10
0.000000
 20
0.000000
 30
0.000000
 40
0.762000
 41
0.762000
 70
1
  0
VERTEX
  8
BottomCopper
 42
1.000000
 10
374.586500
 20
358.241600
  0
VERTEX
  8
BottomCopper
 42
1.000000
 10
375.348500
 20
358.241600
  0
SEQEND
  0
POLYLINE
  8
BottomCopper
 66
1
 10
0.000000
 20
0.000000
 30
0.000000
 40
0.762000
 41
0.762000
 70
1
  0
VERTEX
  8
BottomCopper
 42
1.000000
 10
377.126500
 20
358.241600
  0
VERTEX
  8
BottomCopper
 42
1.000000
 10
377.888500
 20
358.241600
  0
SEQEND
  0
POLYLINE
  8
BottomCopper
 66
1
 10
0.000000
 20
0.000000
 30
0.000000
 40
0.762000
 41
0.762000
 70
1
  0
VERTEX
  8
BottomCopper
 42
1.000000
 10
379.666500
 20
358.241600
  0
VERTEX
  8
BottomCopper
 42
1.000000
 10
380.428500
 20
358.241600
  0
SEQEND
  0
POLYLINE
  8
BottomCopper
 66
1
 10
0.000000
 20
0.000000
 30
0.000000
 40
0.762000
 41
0.762000
 70
1
  0
VERTEX
  8
BottomCopper
 10
347.002100
 20
368.198400
  0
VERTEX
  8
BottomCopper
 10
347.002100
 20
368.960400
  0
VERTEX
  8
BottomCopper
 10
346.240100
 20
368.960400
  0
VERTEX
  8
BottomCopper
 10
346.240100
 20
368.198400
  0
SEQEND
  0
POLYLINE
  8
BottomCopper
 66
1
 10
0.000000
 20
0.000000
 30
0.000000
 40
0.762000
 41
0.762000
 70
1
  0
VERTEX
  8
BottomCopper
 10
347.002100
 20
363.220000
  0
VERTEX
  8
BottomCopper
 10
347.002100
 20
363.982000
  0
VERTEX
  8
BottomCopper
 10
346.240100
 20
363.982000
  0
VERTEX
  8
BottomCopper
 10
346.240100
 20
363.220000
  0
SEQEND
  0
POLYLINE
  8
BottomCopper
 66
1
 10
0.000000
 20
0.000000
 30
0.000000
 40
0.762000
 41
0.762000
 70
1
  0
VERTEX
  8
BottomCopper
 10
339.509100
 20
363.220000
  0
VERTEX
  8
BottomCopper
 10
339.509100
 20
363.982000
  0
VERTEX
  8
BottomCopper
 10
338.747100
 20
363.982000
  0
VERTEX
  8
BottomCopper
 10
338.747100
 20
363.220000
  0
SEQEND
  0
POLYLINE
  8
BottomCopper
 66
1
 10
0.000000
 20
0.000000
 30
0.000000
 40
0.762000
 41
0.762000
 70
1
  0
VERTEX
  8
BottomCopper
 10
339.509100
 20
368.198400
  0
VERTEX
  8
BottomCopper
 10
339.509100
 20
368.960400
  0
VERTEX
  8
BottomCopper
 10
338.747100
 20
368.960400
  0
VERTEX
  8
BottomCopper
 10
338.747100
 20
368.198400
  0
SEQEND
  0
POLYLINE
  8
BottomCopper
 66
1
 10
0.000000
 20
0.000000
 30
0.000000
 40
0.762000
 41
0.762000
 70
1
  0
VERTEX
  8
BottomCopper
 10
347.002100
 20
365.709200
  0
VERTEX
  8
BottomCopper
 10
347.002100
 20
366.471200
  0
VERTEX
  8
BottomCopper
 10
346.240100
 20
366.471200
  0
VERTEX
  8
BottomCopper
 10
346.240100
 20
365.709200
  0
SEQEND
  0
POLYLINE
  8
BottomCopper
 66
1
 10
0.000000
 20
0.000000
 30
0.000000
 40
0.762000
 41
0.762000
 70
1
  0
VERTEX
  8
BottomCopper
 10
339.509100
 20
365.709200
  0
VERTEX
  8
BottomCopper
 10
339.509100
 20
366.471200
  0
VERTEX
  8
BottomCopper
 10
338.747100
 20
366.471200
  0
VERTEX
  8
BottomCopper
 10
338.747100
 20
365.709200
  0
SEQEND
  0
POLYLINE
  8
BottomCopper
 66
1
 10
0.000000
 20
0.000000
 30
0.000000
 40
0.381000
 41
0.381000
 70
1
  0
VERTEX
  8
BottomCopper
 10
408.813000
 20
359.067100
  0
VERTEX
  8
BottomCopper
 10
408.813000
 20
360.464100
  0
VERTEX
  8
BottomCopper
 10
408.432000
 20
360.464100
  0
VERTEX
  8
BottomCopper
 10
408.432000
 20
359.067100
  0
SEQEND
  0
POLYLINE
  8
BottomCopper
 66
1
 10
0.000000
 20
0.000000
 30
0.000000
 40
0.381000
 41
0.381000
 70
1
  0
VERTEX
  8
BottomCopper
 10
410.083000
 20
359.067100
  0
VERTEX
  8
BottomCopper
 10
410.083000
 20
360.464100
  0
VERTEX
  8
BottomCopper
 10
409.702000
 20
360.464100
  0
VERTEX
  8
BottomCopper
 10
409.702000
 20
359.067100
  0
SEQEND
  0
POLYLINE
  8
BottomCopper
 66
1
 10
0.000000
 20
0.000000
 30
0.000000
 40
0.381000
 41
0.381000
 70
1
  0
VERTEX
  8
BottomCopper
 10
411.353000
 20
359.067100
  0
VERTEX
  8
BottomCopper
 10
411.353000
 20
360.464100
  0
VERTEX
  8
BottomCopper
 10
410.972000
 20
360.464100
  0
VERTEX
  8
BottomCopper
 10
410.972000
 20
359.067100
  0
SEQEND
  0
POLYLINE
  8
BottomCopper
 66
1
 10
0.000000
 20
0.000000
 30
0.000000
 40
0.381000
 41
0.381000
 70
1
  0
VERTEX
  8
BottomCopper
 10
412.623000
 20
359.067100
  0
VERTEX
  8
BottomCopper
 10
412.623000
 20
360.464100
  0
VERTEX
  8
BottomCopper
 10
412.242000
 20
360.464100
  0
VERTEX
  8
BottomCopper
 10
412.242000
 20
359.067100
  0
SEQEND
  0
POLYLINE
  8
BottomCopper
 66
1
 10
0.000000
 20
0.000000
 30
0.000000
 40
0.381000
 41
0.381000
 70
1
  0
VERTEX
  8
BottomCopper
 10
412.623000
 20
353.479100
  0
VERTEX
  8
BottomCopper
 10
412.623000
 20
354.876100
  0
VERTEX
  8
BottomCopper
 10
412.242000
 20
354.876100
  0
VERTEX
  8
BottomCopper
 10
412.242000
 20
353.479100
  0
SEQEND
  0
POLYLINE
  8
BottomCopper
 66
1
 10
0.000000
 20
0.000000
 30
0.000000
 40
0.381000
 41
0.381000
 70
1
  0
VERTEX
  8
BottomCopper
 10
411.353000
 20
353.479100
  0
VERTEX
  8
BottomCopper
 10
411.353000
 20
354.876100
  0
VERTEX
  8
BottomCopper
 10
410.972000
 20
354.876100
  0
VERTEX
  8
BottomCopper
 10
410.972000
 20
353.479100
  0
SEQEND
  0
POLYLINE
  8
BottomCopper
 66
1
 10
0.000000
 20
0.000000
 30
0.000000
 40
0.381000
 41
0.381000
 70
1
  0
VERTEX
  8
BottomCopper
 10
410.083000
 20
353.479100
  0
VERTEX
  8
BottomCopper
 10
410.083000
 20
354.876100
  0
VERTEX
  8
BottomCopper
 10
409.702000
 20
354.876100
  0
VERTEX
  8
BottomCopper
 10
409.702000
 20
353.479100
  0
SEQEND
  0
POLYLINE
  8
BottomCopper
 66
1
 10
0.000000
 20
0.000000
 30
0.000000
 40
0.381000
 41
0.381000
 70
1
  0
VERTEX
  8
BottomCopper
 10
408.813000
 20
353.479100
  0
VERTEX
  8
BottomCopper
 10
408.813000
 20
354.876100
  0
VERTEX
  8
BottomCopper
 10
408.432000
 20
354.876100
  0
VERTEX
  8
BottomCopper
 10
408.432000
 20
353.479100
  0
SEQEND
  0
POLYLINE
  8
BottomCopper
 66
1
 10
0.000000
 20
0.000000
 30
0.000000
 40
0.508000
 41
0.508000
 70
1
  0
VERTEX
  8
BottomCopper
 10
389.318500
 20
358.114600
  0
VERTEX
  8
BottomCopper
 10
389.318500
 20
359.384600
  0
VERTEX
  8
BottomCopper
 10
388.810500
 20
359.384600
  0
VERTEX
  8
BottomCopper
 10
388.810500
 20
358.114600
  0
SEQEND
  0
POLYLINE
  8
BottomCopper
 66
1
 10
0.000000
 20
0.000000
 30
0.000000
 40
0.508000
 41
0.508000
 70
1
  0
VERTEX
  8
BottomCopper
 10
391.604500
 20
358.114600
  0
VERTEX
  8
BottomCopper
 10
391.604500
 20
359.384600
  0
VERTEX
  8
BottomCopper
 10
391.096500
 20
359.384600
  0
VERTEX
  8
BottomCopper
 10
391.096500
 20
358.114600
  0
SEQEND
  0
POLYLINE
  8
BottomCopper
 66
1
 10
0.000000
 20
0.000000
 30
0.000000
 40
0.508000
 41
0.508000
 70
1
  0
VERTEX
  8
BottomCopper
 10
393.890500
 20
358.114600
  0
VERTEX
  8
BottomCopper
 10
393.890500
 20
359.384600
  0
VERTEX
  8
BottomCopper
 10
393.382500
 20
359.384600
  0
VERTEX
  8
BottomCopper
 10
393.382500
 20
358.114600
  0
SEQEND
  0
POLYLINE
  8
BottomCopper
 66
1
 10
0.000000
 20
0.000000
 30
0.000000
 40
2.476500
 41
2.476500
 70
1
  0
VERTEX
  8
BottomCopper
 10
393.287250
 20
351.161350
  0
VERTEX
  8
BottomCopper
 10
393.287250
 20
353.637850
  0
VERTEX
  8
BottomCopper
 10
389.413750
 20
353.637850
  0
VERTEX
  8
BottomCopper
 10
389.413750
 20
351.161350
  0
SEQEND
  0
POLYLINE
  8
BottomCopper
 66
1
 10
0.000000
 20
0.000000
 30
0.000000
 40
0.381000
 41
0.381000
 70
1
  0
VERTEX
  8
BottomCopper
 10
451.993000
 20
345.097100
  0
VERTEX
  8
BottomCopper
 10
451.993000
 20
346.494100
  0
VERTEX
  8
BottomCopper
 10
451.612000
 20
346.494100
  0
VERTEX
  8
BottomCopper
 10
451.612000
 20
345.097100
  0
SEQEND
  0
POLYLINE
  8
BottomCopper
 66
1
 10
0.000000
 20
0.000000
 30
0.000000
 40
0.381000
 41
0.381000
 70
1
  0
VERTEX
  8
BottomCopper
 10
453.263000
 20
345.097100
  0
VERTEX
  8
BottomCopper
 10
453.263000
 20
346.494100
  0
VERTEX
  8
BottomCopper
 10
452.882000
 20
346.494100
  0
VERTEX
  8
BottomCopper
 10
452.882000
 20
345.097100
  0
SEQEND
  0
POLYLINE
  8
BottomCopper
 66
1
 10
0.000000
 20
0.000000
 30
0.000000
 40
0.381000
 41
0.381000
 70
1
  0
VERTEX
  8
BottomCopper
 10
454.533000
 20
345.097100
  0
VERTEX
  8
BottomCopper
 10
454.533000
 20
346.494100
  0
VERTEX
  8
BottomCopper
 10
454.152000
 20
346.494100
  0
VERTEX
  8
BottomCopper
 10
454.152000
 20
345.097100
  0
SEQEND
  0
POLYLINE
  8
BottomCopper
 66
1
 10
0.000000
 20
0.000000
 30
0.000000
 40
0.381000
 41
0.381000
 70
1
  0
VERTEX
  8
BottomCopper
 10
455.803000
 20
345.097100
  0
VERTEX
  8
BottomCopper
 10
455.803000
 20
346.494100
  0
VERTEX
  8
BottomCopper
 10
455.422000
 20
346.494100
  0
VERTEX
  8
BottomCopper
 10
455.422000
 20
345.097100
  0
SEQEND
  0
POLYLINE
  8
BottomCopper
 66
1
 10
0.000000
 20
0.000000
 30
0.000000
 40
0.381000
 41
0.381000
 70
1
  0
VERTEX
  8
BottomCopper
 10
455.803000
 20
339.509100
  0
VERTEX
  8
BottomCopper
 10
455.803000
 20
340.906100
  0
VERTEX
  8
BottomCopper
 10
455.422000
 20
340.906100
  0
VERTEX
  8
BottomCopper
 10
455.422000
 20
339.509100
  0
SEQEND
  0
POLYLINE
  8
BottomCopper
 66
1
 10
0.000000
 20
0.000000
 30
0.000000
 40
0.381000
 41
0.381000
 70
1
  0
VERTEX
  8
BottomCopper
 10
454.533000
 20
339.509100
  0
VERTEX
  8
BottomCopper
 10
454.533000
 20
340.906100
  0
VERTEX
  8
BottomCopper
 10
454.152000
 20
340.906100
  0
VERTEX
  8
BottomCopper
 10
454.152000
 20
339.509100
  0
SEQEND
  0
POLYLINE
  8
BottomCopper
 66
1
 10
0.000000
 20
0.000000
 30
0.000000
 40
0.381000
 41
0.381000
 70
1
  0
VERTEX
  8
BottomCopper
 10
453.263000
 20
339.509100
  0
VERTEX
  8
BottomCopper
 10
453.263000
 20
340.906100
  0
VERTEX
  8
BottomCopper
 10
452.882000
 20
340.906100
  0
VERTEX
  8
BottomCopper
 10
452.882000
 20
339.509100
  0
SEQEND
  0
POLYLINE
  8
BottomCopper
 66
1
 10
0.000000
 20
0.000000
 30
0.000000
 40
0.381000
 41
0.381000
 70
1
  0
VERTEX
  8
BottomCopper
 10
451.993000
 20
339.509100
  0
VERTEX
  8
BottomCopper
 10
451.993000
 20
340.906100
  0
VERTEX
  8
BottomCopper
 10
451.612000
 20
340.906100
  0
VERTEX
  8
BottomCopper
 10
451.612000
 20
339.509100
  0
SEQEND
  0
POLYLINE
  8
BottomCopper
 66
1
 10
0.000000
 20
0.000000
 30
0.000000
 40
0.381000
 41
0.381000
 70
1
  0
VERTEX
  8
BottomCopper
 10
445.643000
 20
345.097100
  0
VERTEX
  8
BottomCopper
 10
445.643000
 20
346.494100
  0
VERTEX
  8
BottomCopper
 10
445.262000
 20
346.494100
  0
VERTEX
  8
BottomCopper
 10
445.262000
 20
345.097100
  0
SEQEND
  0
POLYLINE
  8
BottomCopper
 66
1
 10
0.000000
 20
0.000000
 30
0.000000
 40
0.381000
 41
0.381000
 70
1
  0
VERTEX
  8
BottomCopper
 10
446.913000
 20
345.097100
  0
VERTEX
  8
BottomCopper
 10
446.913000
 20
346.494100
  0
VERTEX
  8
BottomCopper
 10
446.532000
 20
346.494100
  0
VERTEX
  8
BottomCopper
 10
446.532000
 20
345.097100
  0
SEQEND
  0
POLYLINE
  8
BottomCopper
 66
1
 10
0.000000
 20
0.000000
 30
0.000000
 40
0.381000
 41
0.381000
 70
1
  0
VERTEX
  8
BottomCopper
 10
448.183000
 20
345.097100
  0
VERTEX
  8
BottomCopper
 10
448.183000
 20
346.494100
  0
VERTEX
  8
BottomCopper
 10
447.802000
 20
346.494100
  0
VERTEX
  8
BottomCopper
 10
447.802000
 20
345.097100
  0
SEQEND
  0
POLYLINE
  8
BottomCopper
 66
1
 10
0.000000
 20
0.000000
 30
0.000000
 40
0.381000
 41
0.381000
 70
1
  0
VERTEX
  8
BottomCopper
 10
449.453000
 20
345.097100
  0
VERTEX
  8
BottomCopper
 10
449.453000
 20
346.494100
  0
VERTEX
  8
BottomCopper
 10
449.072000
 20
346.494100
  0
VERTEX
  8
BottomCopper
 10
449.072000
 20
345.097100
  0
SEQEND
  0
POLYLINE
  8
BottomCopper
 66
1
 10
0.000000
 20
0.000000
 30
0.000000
 40
0.381000
 41
0.381000
 70
1
  0
VERTEX
  8
BottomCopper
 10
449.453000
 20
339.509100
  0
VERTEX
  8
BottomCopper
 10
449.453000
 20
340.906100
  0
VERTEX
  8
BottomCopper
 10
449.072000
 20
340.906100
  0
VERTEX
  8
BottomCopper
 10
449.072000
 20
339.509100
  0
SEQEND
  0
POLYLINE
  8
BottomCopper
 66
1
 10
0.000000
 20
0.000000
 30
0.000000
 40
0.381000
 41
0.381000
 70
1
  0
VERTEX
  8
BottomCopper
 10
448.183000
 20
339.509100
  0
VERTEX
  8
BottomCopper
 10
448.183000
 20
340.906100
  0
VERTEX
  8
BottomCopper
 10
447.802000
 20
340.906100
  0
VERTEX
  8
BottomCopper
 10
447.802000
 20
339.509100
  0
SEQEND
  0
POLYLINE
  8
BottomCopper
 66
1
 10
0.000000
 20
0.000000
 30
0.000000
 40
0.381000
 41
0.381000
 70
1
  0
VERTEX
  8
BottomCopper
 10
446.913000
 20
339.509100
  0
VERTEX
  8
BottomCopper
 10
446.913000
 20
340.906100
  0
VERTEX
  8
BottomCopper
 10
446.532000
 20
340.906100
  0
VERTEX
  8
BottomCopper
 10
446.532000
 20
339.509100
  0
SEQEND
  0
POLYLINE
  8
BottomCopper
 66
1
 10
0.000000
 20
0.000000
 30
0.000000
 40
0.381000
 41
0.381000
 70
1
  0
VERTEX
  8
BottomCopper
 10
445.643000
 20
339.509100
  0
VERTEX
  8
BottomCopper
 10
445.643000
 20
340.906100
  0
VERTEX
  8
BottomCopper
 10
445.262000
 20
340.906100
  0
VERTEX
  8
BottomCopper
 10
445.262000
 20
339.509100
  0
SEQEND
  0
POLYLINE
  8
BottomCopper
 66
1
 10
0.000000
 20
0.000000
 30
0.000000
 40
0.508000
 41
0.508000
 70
1
  0
VERTEX
  8
BottomCopper
 10
360.108500
 20
367.004600
  0
VERTEX
  8
BottomCopper
 10
360.108500
 20
368.274600
  0
VERTEX
  8
BottomCopper
 10
359.600500
 20
368.274600
  0
VERTEX
  8
BottomCopper
 10
359.600500
 20
367.004600
  0
SEQEND
  0
POLYLINE
  8
BottomCopper
 66
1
 10
0.000000
 20
0.000000
 30
0.000000
 40
0.508000
 41
0.508000
 70
1
  0
VERTEX
  8
BottomCopper
 10
362.394500
 20
367.004600
  0
VERTEX
  8
BottomCopper
 10
362.394500
 20
368.274600
  0
VERTEX
  8
BottomCopper
 10
361.886500
 20
368.274600
  0
VERTEX
  8
BottomCopper
 10
361.886500
 20
367.004600
  0
SEQEND
  0
POLYLINE
  8
BottomCopper
 66
1
 10
0.000000
 20
0.000000
 30
0.000000
 40
0.508000
 41
0.508000
 70
1
  0
VERTEX
  8
BottomCopper
 10
364.680500
 20
367.004600
  0
VERTEX
  8
BottomCopper
 10
364.680500
 20
368.274600
  0
VERTEX
  8
BottomCopper
 10
364.172500
 20
368.274600
  0
VERTEX
  8
BottomCopper
 10
364.172500
 20
367.004600
  0
SEQEND
  0
POLYLINE
  8
BottomCopper
 66
1
 10
0.000000
 20
0.000000
 30
0.000000
 40
2.476500
 41
2.476500
 70
1
  0
VERTEX
  8
BottomCopper
 10
364.077250
 20
360.051350
  0
VERTEX
  8
BottomCopper
 10
364.077250
 20
362.527850
  0
VERTEX
  8
BottomCopper
 10
360.203750
 20
362.527850
  0
VERTEX
  8
BottomCopper
 10
360.203750
 20
360.051350
  0
SEQEND
  0
POLYLINE
  8
BottomCopper
 66
1
 10
0.000000
 20
0.000000
 30
0.000000
 40
0.762000
 41
0.762000
 70
1
  0
VERTEX
  8
BottomCopper
 42
1.000000
 10
336.003900
 20
338.836000
  0
VERTEX
  8
BottomCopper
 42
1.000000
 10
336.765900
 20
338.836000
  0
SEQEND
  0
POLYLINE
  8
BottomCopper
 66
1
 10
0.000000
 20
0.000000
 30
0.000000
 40
0.762000
 41
0.762000
 70
1
  0
VERTEX
  8
BottomCopper
 42
1.000000
 10
336.003900
 20
341.376000
  0
VERTEX
  8
BottomCopper
 42
1.000000
 10
336.765900
 20
341.376000
  0
SEQEND
  0
POLYLINE
  8
BottomCopper
 66
1
 10
0.000000
 20
0.000000
 30
0.000000
 40
0.762000
 41
0.762000
 70
1
  0
VERTEX
  8
BottomCopper
 10
379.691900
 20
353.415600
  0
VERTEX
  8
BottomCopper
 10
379.691900
 20
354.177600
  0
VERTEX
  8
BottomCopper
 10
378.929900
 20
354.177600
  0
VERTEX
  8
BottomCopper
 10
378.929900
 20
353.415600
  0
SEQEND
  0
POLYLINE
  8
BottomCopper
 66
1
 10
0.000000
 20
0.000000
 30
0.000000
 40
0.762000
 41
0.762000
 70
1
  0
VERTEX
  8
BottomCopper
 10
384.187700
 20
353.415600
  0
VERTEX
  8
BottomCopper
 10
384.187700
 20
354.177600
  0
VERTEX
  8
BottomCopper
 10
383.425700
 20
354.177600
  0
VERTEX
  8
BottomCopper
 10
383.425700
 20
353.415600
  0
SEQEND
  0
POLYLINE
  8
BottomCopper
 66
1
 10
0.000000
 20
0.000000
 30
0.000000
 40
0.762000
 41
0.762000
 70
1
  0
VERTEX
  8
BottomCopper
 10
369.506500
 20
367.665000
  0
VERTEX
  8
BottomCopper
 10
369.506500
 20
368.427000
  0
VERTEX
  8
BottomCopper
 10
368.744500
 20
368.427000
  0
VERTEX
  8
BottomCopper
 10
368.744500
 20
367.665000
  0
SEQEND
  0
POLYLINE
  8
BottomCopper
 66
1
 10
0.000000
 20
0.000000
 30
0.000000
 40
0.762000
 41
0.762000
 70
1
  0
VERTEX
  8
BottomCopper
 10
369.506500
 20
372.160800
  0
VERTEX
  8
BottomCopper
 10
369.506500
 20
372.922800
  0
VERTEX
  8
BottomCopper
 10
368.744500
 20
372.922800
  0
VERTEX
  8
BottomCopper
 10
368.744500
 20
372.160800
  0
SEQEND
  0
POLYLINE
  8
BottomCopper
 66
1
 10
0.000000
 20
0.000000
 30
0.000000
 40
0.762000
 41
0.762000
 70
1
  0
VERTEX
  8
BottomCopper
 10
439.305700
 20
357.225600
  0
VERTEX
  8
BottomCopper
 10
439.305700
 20
360.527600
  0
VERTEX
  8
BottomCopper
 10
438.543700
 20
360.527600
  0
VERTEX
  8
BottomCopper
 10
438.543700
 20
357.225600
  0
SEQEND
  0
POLYLINE
  8
BottomCopper
 66
1
 10
0.000000
 20
0.000000
 30
0.000000
 40
0.762000
 41
0.762000
 70
1
  0
VERTEX
  8
BottomCopper
 10
436.816500
 20
357.225600
  0
VERTEX
  8
BottomCopper
 10
436.816500
 20
360.527600
  0
VERTEX
  8
BottomCopper
 10
436.054500
 20
360.527600
  0
VERTEX
  8
BottomCopper
 10
436.054500
 20
357.225600
  0
SEQEND
  0
POLYLINE
  8
BottomCopper
 66
1
 10
0.000000
 20
0.000000
 30
0.000000
 40
0.762000
 41
0.762000
 70
1
  0
VERTEX
  8
BottomCopper
 10
434.301900
 20
357.225600
  0
VERTEX
  8
BottomCopper
 10
434.301900
 20
360.527600
  0
VERTEX
  8
BottomCopper
 10
433.539900
 20
360.527600
  0
VERTEX
  8
BottomCopper
 10
433.539900
 20
357.225600
  0
SEQEND
  0
POLYLINE
  8
BottomCopper
 66
1
 10
0.000000
 20
0.000000
 30
0.000000
 40
0.508000
 41
0.508000
 70
1
  0
VERTEX
  8
BottomCopper
 10
347.662500
 20
374.116600
  0
VERTEX
  8
BottomCopper
 10
347.662500
 20
374.624600
  0
VERTEX
  8
BottomCopper
 10
346.138500
 20
374.624600
  0
VERTEX
  8
BottomCopper
 10
346.138500
 20
374.116600
  0
SEQEND
  0
POLYLINE
  8
BottomCopper
 66
1
 10
0.000000
 20
0.000000
 30
0.000000
 40
0.508000
 41
0.508000
 70
1
  0
VERTEX
  8
BottomCopper
 10
347.662500
 20
371.322600
  0
VERTEX
  8
BottomCopper
 10
347.662500
 20
371.830600
  0
VERTEX
  8
BottomCopper
 10
346.138500
 20
371.830600
  0
VERTEX
  8
BottomCopper
 10
346.138500
 20
371.322600
  0
SEQEND
  0
POLYLINE
  8
BottomCopper
 66
1
 10
0.000000
 20
0.000000
 30
0.000000
 40
0.508000
 41
0.508000
 70
1
  0
VERTEX
  8
BottomCopper
 10
351.472500
 20
374.116600
  0
VERTEX
  8
BottomCopper
 10
351.472500
 20
374.624600
  0
VERTEX
  8
BottomCopper
 10
349.948500
 20
374.624600
  0
VERTEX
  8
BottomCopper
 10
349.948500
 20
374.116600
  0
SEQEND
  0
POLYLINE
  8
BottomCopper
 66
1
 10
0.000000
 20
0.000000
 30
0.000000
 40
0.508000
 41
0.508000
 70
1
  0
VERTEX
  8
BottomCopper
 10
351.472500
 20
371.322600
  0
VERTEX
  8
BottomCopper
 10
351.472500
 20
371.830600
  0
VERTEX
  8
BottomCopper
 10
349.948500
 20
371.830600
  0
VERTEX
  8
BottomCopper
 10
349.948500
 20
371.322600
  0
SEQEND
  0
POLYLINE
  8
BottomCopper
 66
1
 10
0.000000
 20
0.000000
 30
0.000000
 40
0.508000
 41
0.508000
 70
1
  0
VERTEX
  8
BottomCopper
 10
355.282500
 20
374.116600
  0
VERTEX
  8
BottomCopper
 10
355.282500
 20
374.624600
  0
VERTEX
  8
BottomCopper
 10
353.758500
 20
374.624600
  0
VERTEX
  8
BottomCopper
 10
353.758500
 20
374.116600
  0
SEQEND
  0
POLYLINE
  8
BottomCopper
 66
1
 10
0.000000
 20
0.000000
 30
0.000000
 40
0.508000
 41
0.508000
 70
1
  0
VERTEX
  8
BottomCopper
 10
355.282500
 20
371.322600
  0
VERTEX
  8
BottomCopper
 10
355.282500
 20
371.830600
  0
VERTEX
  8
BottomCopper
 10
353.758500
 20
371.830600
  0
VERTEX
  8
BottomCopper
 10
353.758500
 20
371.322600
  0
SEQEND
  0
POLYLINE
  8
BottomCopper
 66
1
 10
0.000000
 20
0.000000
 30
0.000000
 40
0.444500
 41
0.444500
 70
1
  0
VERTEX
  8
BottomCopper
 10
420.465250
 20
363.988350
  0
VERTEX
  8
BottomCopper
 10
420.465250
 20
364.432850
  0
VERTEX
  8
BottomCopper
 10
419.385750
 20
364.432850
  0
VERTEX
  8
BottomCopper
 10
419.385750
 20
363.988350
  0
SEQEND
  0
POLYLINE
  8
BottomCopper
 66
1
 10
0.000000
 20
0.000000
 30
0.000000
 40
0.444500
 41
0.444500
 70
1
  0
VERTEX
  8
BottomCopper
 10
420.465250
 20
366.020350
  0
VERTEX
  8
BottomCopper
 10
420.465250
 20
366.464850
  0
VERTEX
  8
BottomCopper
 10
419.385750
 20
366.464850
  0
VERTEX
  8
BottomCopper
 10
419.385750
 20
366.020350
  0
SEQEND
  0
POLYLINE
  8
BottomCopper
 66
1
 10
0.000000
 20
0.000000
 30
0.000000
 40
0.444500
 41
0.444500
 70
1
  0
VERTEX
  8
BottomCopper
 10
402.685250
 20
355.733350
  0
VERTEX
  8
BottomCopper
 10
402.685250
 20
356.177850
  0
VERTEX
  8
BottomCopper
 10
401.605750
 20
356.177850
  0
VERTEX
  8
BottomCopper
 10
401.605750
 20
355.733350
  0
SEQEND
  0
POLYLINE
  8
BottomCopper
 66
1
 10
0.000000
 20
0.000000
 30
0.000000
 40
0.444500
 41
0.444500
 70
1
  0
VERTEX
  8
BottomCopper
 10
402.685250
 20
357.765350
  0
VERTEX
  8
BottomCopper
 10
402.685250
 20
358.209850
  0
VERTEX
  8
BottomCopper
 10
401.605750
 20
358.209850
  0
VERTEX
  8
BottomCopper
 10
401.605750
 20
357.765350
  0
SEQEND
  0
POLYLINE
  8
BottomCopper
 66
1
 10
0.000000
 20
0.000000
 30
0.000000
 40
0.444500
 41
0.444500
 70
1
  0
VERTEX
  8
BottomCopper
 10
444.595250
 20
373.640350
  0
VERTEX
  8
BottomCopper
 10
444.595250
 20
374.084850
  0
VERTEX
  8
BottomCopper
 10
443.515750
 20
374.084850
  0
VERTEX
  8
BottomCopper
 10
443.515750
 20
373.640350
  0
SEQEND
  0
POLYLINE
  8
BottomCopper
 66
1
 10
0.000000
 20
0.000000
 30
0.000000
 40
0.444500
 41
0.444500
 70
1
  0
VERTEX
  8
BottomCopper
 10
444.595250
 20
371.608350
  0
VERTEX
  8
BottomCopper
 10
444.595250
 20
372.052850
  0
VERTEX
  8
BottomCopper
 10
443.515750
 20
372.052850
  0
VERTEX
  8
BottomCopper
 10
443.515750
 20
371.608350
  0
SEQEND
  0
POLYLINE
  8
BottomCopper
 66
1
 10
0.000000
 20
0.000000
 30
0.000000
 40
0.444500
 41
0.444500
 70
1
  0
VERTEX
  8
BottomCopper
 10
341.610950
 20
337.051650
  0
VERTEX
  8
BottomCopper
 10
341.610950
 20
338.131150
  0
VERTEX
  8
BottomCopper
 10
341.166450
 20
338.131150
  0
VERTEX
  8
BottomCopper
 10
341.166450
 20
337.051650
  0
SEQEND
  0
POLYLINE
  8
BottomCopper
 66
1
 10
0.000000
 20
0.000000
 30
0.000000
 40
0.444500
 41
0.444500
 70
1
  0
VERTEX
  8
BottomCopper
 10
343.642950
 20
337.051650
  0
VERTEX
  8
BottomCopper
 10
343.642950
 20
338.131150
  0
VERTEX
  8
BottomCopper
 10
343.198450
 20
338.131150
  0
VERTEX
  8
BottomCopper
 10
343.198450
 20
337.051650
  0
SEQEND
  0
POLYLINE
  8
BottomCopper
 66
1
 10
0.000000
 20
0.000000
 30
0.000000
 40
0.444500
 41
0.444500
 70
1
  0
VERTEX
  8
BottomCopper
 10
393.160250
 20
365.385350
  0
VERTEX
  8
BottomCopper
 10
393.160250
 20
365.829850
  0
VERTEX
  8
BottomCopper
 10
392.080750
 20
365.829850
  0
VERTEX
  8
BottomCopper
 10
392.080750
 20
365.385350
  0
SEQEND
  0
POLYLINE
  8
BottomCopper
 66
1
 10
0.000000
 20
0.000000
 30
0.000000
 40
0.444500
 41
0.444500
 70
1
  0
VERTEX
  8
BottomCopper
 10
393.160250
 20
363.353350
  0
VERTEX
  8
BottomCopper
 10
393.160250
 20
363.797850
  0
VERTEX
  8
BottomCopper
 10
392.080750
 20
363.797850
  0
VERTEX
  8
BottomCopper
 10
392.080750
 20
363.353350
  0
SEQEND
  0
POLYLINE
  8
BottomCopper
 66
1
 10
0.000000
 20
0.000000
 30
0.000000
 40
0.508000
 41
0.508000
 70
1
  0
VERTEX
  8
BottomCopper
 10
459.422500
 20
344.271600
  0
VERTEX
  8
BottomCopper
 10
459.422500
 20
344.779600
  0
VERTEX
  8
BottomCopper
 10
457.898500
 20
344.779600
  0
VERTEX
  8
BottomCopper
 10
457.898500
 20
344.271600
  0
SEQEND
  0
POLYLINE
  8
BottomCopper
 66
1
 10
0.000000
 20
0.000000
 30
0.000000
 40
0.508000
 41
0.508000
 70
1
  0
VERTEX
  8
BottomCopper
 10
459.422500
 20
341.477600
  0
VERTEX
  8
BottomCopper
 10
459.422500
 20
341.985600
  0
VERTEX
  8
BottomCopper
 10
457.898500
 20
341.985600
  0
VERTEX
  8
BottomCopper
 10
457.898500
 20
341.477600
  0
SEQEND
  0
POLYLINE
  8
BottomCopper
 66
1
 10
0.000000
 20
0.000000
 30
0.000000
 40
0.508000
 41
0.508000
 70
1
  0
VERTEX
  8
BottomCopper
 10
439.102500
 20
341.223600
  0
VERTEX
  8
BottomCopper
 10
439.102500
 20
341.731600
  0
VERTEX
  8
BottomCopper
 10
437.578500
 20
341.731600
  0
VERTEX
  8
BottomCopper
 10
437.578500
 20
341.223600
  0
SEQEND
  0
POLYLINE
  8
BottomCopper
 66
1
 10
0.000000
 20
0.000000
 30
0.000000
 40
0.508000
 41
0.508000
 70
1
  0
VERTEX
  8
BottomCopper
 10
439.102500
 20
344.017600
  0
VERTEX
  8
BottomCopper
 10
439.102500
 20
344.525600
  0
VERTEX
  8
BottomCopper
 10
437.578500
 20
344.525600
  0
VERTEX
  8
BottomCopper
 10
437.578500
 20
344.017600
  0
SEQEND
  0
POLYLINE
  8
BottomCopper
 66
1
 10
0.000000
 20
0.000000
 30
0.000000
 40
0.444500
 41
0.444500
 70
1
  0
VERTEX
  8
BottomCopper
 10
395.065250
 20
339.858350
  0
VERTEX
  8
BottomCopper
 10
395.065250
 20
340.302850
  0
VERTEX
  8
BottomCopper
 10
393.985750
 20
340.302850
  0
VERTEX
  8
BottomCopper
 10
393.985750
 20
339.858350
  0
SEQEND
  0
POLYLINE
  8
BottomCopper
 66
1
 10
0.000000
 20
0.000000
 30
0.000000
 40
0.444500
 41
0.444500
 70
1
  0
VERTEX
  8
BottomCopper
 10
395.065250
 20
341.890350
  0
VERTEX
  8
BottomCopper
 10
395.065250
 20
342.334850
  0
VERTEX
  8
BottomCopper
 10
393.985750
 20
342.334850
  0
VERTEX
  8
BottomCopper
 10
393.985750
 20
341.890350
  0
SEQEND
  0
POLYLINE
  8
BottomCopper
 66
1
 10
0.000000
 20
0.000000
 30
0.000000
 40
0.444500
 41
0.444500
 70
1
  0
VERTEX
  8
BottomCopper
 10
414.115250
 20
340.620350
  0
VERTEX
  8
BottomCopper
 10
414.115250
 20
341.064850
  0
VERTEX
  8
BottomCopper
 10
413.035750
 20
341.064850
  0
VERTEX
  8
BottomCopper
 10
413.035750
 20
340.620350
  0
SEQEND
  0
POLYLINE
  8
BottomCopper
 66
1
 10
0.000000
 20
0.000000
 30
0.000000
 40
0.444500
 41
0.444500
 70
1
  0
VERTEX
  8
BottomCopper
 10
414.115250
 20
338.588350
  0
VERTEX
  8
BottomCopper
 10
414.115250
 20
339.032850
  0
VERTEX
  8
BottomCopper
 10
413.035750
 20
339.032850
  0
VERTEX
  8
BottomCopper
 10
413.035750
 20
338.588350
  0
SEQEND
  0
POLYLINE
  8
BottomCopper
 66
1
 10
0.000000
 20
0.000000
 30
0.000000
 40
0.444500
 41
0.444500
 70
1
  0
VERTEX
  8
BottomCopper
 10
459.200250
 20
338.715350
  0
VERTEX
  8
BottomCopper
 10
459.200250
 20
339.159850
  0
VERTEX
  8
BottomCopper
 10
458.120750
 20
339.159850
  0
VERTEX
  8
BottomCopper
 10
458.120750
 20
338.715350
  0
SEQEND
  0
POLYLINE
  8
BottomCopper
 66
1
 10
0.000000
 20
0.000000
 30
0.000000
 40
0.444500
 41
0.444500
 70
1
  0
VERTEX
  8
BottomCopper
 10
459.200250
 20
336.683350
  0
VERTEX
  8
BottomCopper
 10
459.200250
 20
337.127850
  0
VERTEX
  8
BottomCopper
 10
458.120750
 20
337.127850
  0
VERTEX
  8
BottomCopper
 10
458.120750
 20
336.683350
  0
SEQEND
  0
POLYLINE
  8
BottomCopper
 66
1
 10
0.000000
 20
0.000000
 30
0.000000
 40
0.444500
 41
0.444500
 70
1
  0
VERTEX
  8
BottomCopper
 10
442.690250
 20
338.715350
  0
VERTEX
  8
BottomCopper
 10
442.690250
 20
339.159850
  0
VERTEX
  8
BottomCopper
 10
441.610750
 20
339.159850
  0
VERTEX
  8
BottomCopper
 10
441.610750
 20
338.715350
  0
SEQEND
  0
POLYLINE
  8
BottomCopper
 66
1
 10
0.000000
 20
0.000000
 30
0.000000
 40
0.444500
 41
0.444500
 70
1
  0
VERTEX
  8
BottomCopper
 10
442.690250
 20
336.683350
  0
VERTEX
  8
BottomCopper
 10
442.690250
 20
337.127850
  0
VERTEX
  8
BottomCopper
 10
441.610750
 20
337.127850
  0
VERTEX
  8
BottomCopper
 10
441.610750
 20
336.683350
  0
SEQEND
  0
POLYLINE
  8
BottomCopper
 66
1
 10
0.000000
 20
0.000000
 30
0.000000
 40
0.444500
 41
0.444500
 70
1
  0
VERTEX
  8
BottomCopper
 10
430.625250
 20
340.620350
  0
VERTEX
  8
BottomCopper
 10
430.625250
 20
341.064850
  0
VERTEX
  8
BottomCopper
 10
429.545750
 20
341.064850
  0
VERTEX
  8
BottomCopper
 10
429.545750
 20
340.620350
  0
SEQEND
  0
POLYLINE
  8
BottomCopper
 66
1
 10
0.000000
 20
0.000000
 30
0.000000
 40
0.444500
 41
0.444500
 70
1
  0
VERTEX
  8
BottomCopper
 10
430.625250
 20
338.588350
  0
VERTEX
  8
BottomCopper
 10
430.625250
 20
339.032850
  0
VERTEX
  8
BottomCopper
 10
429.545750
 20
339.032850
  0
VERTEX
  8
BottomCopper
 10
429.545750
 20
338.588350
  0
SEQEND
  0
POLYLINE
  8
BottomCopper
 66
1
 10
0.000000
 20
0.000000
 30
0.000000
 40
0.444500
 41
0.444500
 70
1
  0
VERTEX
  8
BottomCopper
 10
367.696750
 20
360.876850
  0
VERTEX
  8
BottomCopper
 10
367.696750
 20
361.956350
  0
VERTEX
  8
BottomCopper
 10
367.252250
 20
361.956350
  0
VERTEX
  8
BottomCopper
 10
367.252250
 20
360.876850
  0
SEQEND
  0
POLYLINE
  8
BottomCopper
 66
1
 10
0.000000
 20
0.000000
 30
0.000000
 40
0.444500
 41
0.444500
 70
1
  0
VERTEX
  8
BottomCopper
 10
369.728750
 20
360.876850
  0
VERTEX
  8
BottomCopper
 10
369.728750
 20
361.956350
  0
VERTEX
  8
BottomCopper
 10
369.284250
 20
361.956350
  0
VERTEX
  8
BottomCopper
 10
369.284250
 20
360.876850
  0
SEQEND
  0
POLYLINE
  8
BottomCopper
 66
1
 10
0.000000
 20
0.000000
 30
0.000000
 40
0.444500
 41
0.444500
 70
1
  0
VERTEX
  8
BottomCopper
 10
356.965250
 20
367.290350
  0
VERTEX
  8
BottomCopper
 10
356.965250
 20
367.734850
  0
VERTEX
  8
BottomCopper
 10
355.885750
 20
367.734850
  0
VERTEX
  8
BottomCopper
 10
355.885750
 20
367.290350
  0
SEQEND
  0
POLYLINE
  8
BottomCopper
 66
1
 10
0.000000
 20
0.000000
 30
0.000000
 40
0.444500
 41
0.444500
 70
1
  0
VERTEX
  8
BottomCopper
 10
356.965250
 20
365.258350
  0
VERTEX
  8
BottomCopper
 10
356.965250
 20
365.702850
  0
VERTEX
  8
BottomCopper
 10
355.885750
 20
365.702850
  0
VERTEX
  8
BottomCopper
 10
355.885750
 20
365.258350
  0
SEQEND
  0
POLYLINE
  8
BottomCopper
 66
1
 10
0.000000
 20
0.000000
 30
0.000000
 40
0.444500
 41
0.444500
 70
1
  0
VERTEX
  8
BottomCopper
 10
356.965250
 20
362.845350
  0
VERTEX
  8
BottomCopper
 10
356.965250
 20
363.289850
  0
VERTEX
  8
BottomCopper
 10
355.885750
 20
363.289850
  0
VERTEX
  8
BottomCopper
 10
355.885750
 20
362.845350
  0
SEQEND
  0
POLYLINE
  8
BottomCopper
 66
1
 10
0.000000
 20
0.000000
 30
0.000000
 40
0.444500
 41
0.444500
 70
1
  0
VERTEX
  8
BottomCopper
 10
356.965250
 20
360.813350
  0
VERTEX
  8
BottomCopper
 10
356.965250
 20
361.257850
  0
VERTEX
  8
BottomCopper
 10
355.885750
 20
361.257850
  0
VERTEX
  8
BottomCopper
 10
355.885750
 20
360.813350
  0
SEQEND
  0
POLYLINE
  8
BottomCopper
 66
1
 10
0.000000
 20
0.000000
 30
0.000000
 40
0.444500
 41
0.444500
 70
1
  0
VERTEX
  8
BottomCopper
 10
367.696750
 20
364.051850
  0
VERTEX
  8
BottomCopper
 10
367.696750
 20
365.131350
  0
VERTEX
  8
BottomCopper
 10
367.252250
 20
365.131350
  0
VERTEX
  8
BottomCopper
 10
367.252250
 20
364.051850
  0
SEQEND
  0
POLYLINE
  8
BottomCopper
 66
1
 10
0.000000
 20
0.000000
 30
0.000000
 40
0.444500
 41
0.444500
 70
1
  0
VERTEX
  8
BottomCopper
 10
369.728750
 20
364.051850
  0
VERTEX
  8
BottomCopper
 10
369.728750
 20
365.131350
  0
VERTEX
  8
BottomCopper
 10
369.284250
 20
365.131350
  0
VERTEX
  8
BottomCopper
 10
369.284250
 20
364.051850
  0
SEQEND
  0
POLYLINE
  8
BottomCopper
 66
1
 10
0.000000
 20
0.000000
 30
0.000000
 40
0.444500
 41
0.444500
 70
1
  0
VERTEX
  8
BottomCopper
 10
352.583750
 20
367.226850
  0
VERTEX
  8
BottomCopper
 10
352.583750
 20
368.306350
  0
VERTEX
  8
BottomCopper
 10
352.139250
 20
368.306350
  0
VERTEX
  8
BottomCopper
 10
352.139250
 20
367.226850
  0
SEQEND
  0
POLYLINE
  8
BottomCopper
 66
1
 10
0.000000
 20
0.000000
 30
0.000000
 40
0.444500
 41
0.444500
 70
1
  0
VERTEX
  8
BottomCopper
 10
350.551750
 20
367.226850
  0
VERTEX
  8
BottomCopper
 10
350.551750
 20
368.306350
  0
VERTEX
  8
BottomCopper
 10
350.107250
 20
368.306350
  0
VERTEX
  8
BottomCopper
 10
350.107250
 20
367.226850
  0
SEQEND
  0
POLYLINE
  8
BottomCopper
 66
1
 10
0.000000
 20
0.000000
 30
0.000000
 40
0.508000
 41
0.508000
 70
1
  0
VERTEX
  8
BottomCopper
 10
463.232500
 20
344.271600
  0
VERTEX
  8
BottomCopper
 10
463.232500
 20
344.779600
  0
VERTEX
  8
BottomCopper
 10
461.708500
 20
344.779600
  0
VERTEX
  8
BottomCopper
 10
461.708500
 20
344.271600
  0
SEQEND
  0
POLYLINE
  8
BottomCopper
 66
1
 10
0.000000
 20
0.000000
 30
0.000000
 40
0.508000
 41
0.508000
 70
1
  0
VERTEX
  8
BottomCopper
 10
463.232500
 20
341.477600
  0
VERTEX
  8
BottomCopper
 10
463.232500
 20
341.985600
  0
VERTEX
  8
BottomCopper
 10
461.708500
 20
341.985600
  0
VERTEX
  8
BottomCopper
 10
461.708500
 20
341.477600
  0
SEQEND
  0
POLYLINE
  8
BottomCopper
 66
1
 10
0.000000
 20
0.000000
 30
0.000000
 40
0.508000
 41
0.508000
 70
1
  0
VERTEX
  8
BottomCopper
 10
442.912500
 20
341.223600
  0
VERTEX
  8
BottomCopper
 10
442.912500
 20
341.731600
  0
VERTEX
  8
BottomCopper
 10
441.388500
 20
341.731600
  0
VERTEX
  8
BottomCopper
 10
441.388500
 20
341.223600
  0
SEQEND
  0
POLYLINE
  8
BottomCopper
 66
1
 10
0.000000
 20
0.000000
 30
0.000000
 40
0.508000
 41
0.508000
 70
1
  0
VERTEX
  8
BottomCopper
 10
442.912500
 20
344.017600
  0
VERTEX
  8
BottomCopper
 10
442.912500
 20
344.525600
  0
VERTEX
  8
BottomCopper
 10
441.388500
 20
344.525600
  0
VERTEX
  8
BottomCopper
 10
441.388500
 20
344.017600
  0
SEQEND
  0
POLYLINE
  8
BottomCopper
 66
1
 10
0.000000
 20
0.000000
 30
0.000000
 40
0.444500
 41
0.444500
 70
1
  0
VERTEX
  8
BottomCopper
 10
406.495250
 20
355.733350
  0
VERTEX
  8
BottomCopper
 10
406.495250
 20
356.177850
  0
VERTEX
  8
BottomCopper
 10
405.415750
 20
356.177850
  0
VERTEX
  8
BottomCopper
 10
405.415750
 20
355.733350
  0
SEQEND
  0
POLYLINE
  8
BottomCopper
 66
1
 10
0.000000
 20
0.000000
 30
0.000000
 40
0.444500
 41
0.444500
 70
1
  0
VERTEX
  8
BottomCopper
 10
406.495250
 20
357.765350
  0
VERTEX
  8
BottomCopper
 10
406.495250
 20
358.209850
  0
VERTEX
  8
BottomCopper
 10
405.415750
 20
358.209850
  0
VERTEX
  8
BottomCopper
 10
405.415750
 20
357.765350
  0
SEQEND
  0
POLYLINE
  8
BottomCopper
 66
1
 10
0.000000
 20
0.000000
 30
0.000000
 40
0.444500
 41
0.444500
 70
1
  0
VERTEX
  8
BottomCopper
 10
333.127350
 20
348.557850
  0
VERTEX
  8
BottomCopper
 10
333.127350
 20
349.637350
  0
VERTEX
  8
BottomCopper
 10
332.682850
 20
349.637350
  0
VERTEX
  8
BottomCopper
 10
332.682850
 20
348.557850
  0
SEQEND
  0
POLYLINE
  8
BottomCopper
 66
1
 10
0.000000
 20
0.000000
 30
0.000000
 40
0.444500
 41
0.444500
 70
1
  0
VERTEX
  8
BottomCopper
 10
331.095350
 20
348.557850
  0
VERTEX
  8
BottomCopper
 10
331.095350
 20
349.637350
  0
VERTEX
  8
BottomCopper
 10
330.650850
 20
349.637350
  0
VERTEX
  8
BottomCopper
 10
330.650850
 20
348.557850
  0
SEQEND
  0
POLYLINE
  8
BottomCopper
 66
1
 10
0.000000
 20
0.000000
 30
0.000000
 40
1.016000
 41
1.016000
 70
1
  0
VERTEX
  8
BottomCopper
 10
333.895700
 20
344.601800
  0
VERTEX
  8
BottomCopper
 10
333.895700
 20
345.617800
  0
VERTEX
  8
BottomCopper
 10
332.879700
 20
345.617800
  0
VERTEX
  8
BottomCopper
 10
332.879700
 20
344.601800
  0
SEQEND
  0
POLYLINE
  8
BottomCopper
 66
1
 10
0.000000
 20
0.000000
 30
0.000000
 40
1.016000
 41
1.016000
 70
1
  0
VERTEX
  8
BottomCopper
 10
330.390500
 20
344.601800
  0
VERTEX
  8
BottomCopper
 10
330.390500
 20
345.617800
  0
VERTEX
  8
BottomCopper
 10
329.374500
 20
345.617800
  0
VERTEX
  8
BottomCopper
 10
329.374500
 20
344.601800
  0
SEQEND
  0
POLYLINE
  8
BottomCopper
 66
1
 10
0.000000
 20
0.000000
 30
0.000000
 40
0.444500
 41
0.444500
 70
1
  0
VERTEX
  8
BottomCopper
 10
383.635250
 20
347.478350
  0
VERTEX
  8
BottomCopper
 10
383.635250
 20
347.922850
  0
VERTEX
  8
BottomCopper
 10
382.555750
 20
347.922850
  0
VERTEX
  8
BottomCopper
 10
382.555750
 20
347.478350
  0
SEQEND
  0
POLYLINE
  8
BottomCopper
 66
1
 10
0.000000
 20
0.000000
 30
0.000000
 40
0.444500
 41
0.444500
 70
1
  0
VERTEX
  8
BottomCopper
 10
383.635250
 20
349.510350
  0
VERTEX
  8
BottomCopper
 10
383.635250
 20
349.954850
  0
VERTEX
  8
BottomCopper
 10
382.555750
 20
349.954850
  0
VERTEX
  8
BottomCopper
 10
382.555750
 20
349.510350
  0
SEQEND
  0
POLYLINE
  8
BottomCopper
 66
1
 10
0.000000
 20
0.000000
 30
0.000000
 40
0.444500
 41
0.444500
 70
1
  0
VERTEX
  8
BottomCopper
 10
416.020250
 20
346.843350
  0
VERTEX
  8
BottomCopper
 10
416.020250
 20
347.287850
  0
VERTEX
  8
BottomCopper
 10
414.940750
 20
347.287850
  0
VERTEX
  8
BottomCopper
 10
414.940750
 20
346.843350
  0
SEQEND
  0
POLYLINE
  8
BottomCopper
 66
1
 10
0.000000
 20
0.000000
 30
0.000000
 40
0.444500
 41
0.444500
 70
1
  0
VERTEX
  8
BottomCopper
 10
416.020250
 20
348.875350
  0
VERTEX
  8
BottomCopper
 10
416.020250
 20
349.319850
  0
VERTEX
  8
BottomCopper
 10
414.940750
 20
349.319850
  0
VERTEX
  8
BottomCopper
 10
414.940750
 20
348.875350
  0
SEQEND
  0
POLYLINE
  8
BottomCopper
 66
1
 10
0.000000
 20
0.000000
 30
0.000000
 40
0.444500
 41
0.444500
 70
1
  0
VERTEX
  8
BottomCopper
 10
452.786750
 20
363.416850
  0
VERTEX
  8
BottomCopper
 10
452.786750
 20
364.496350
  0
VERTEX
  8
BottomCopper
 10
452.342250
 20
364.496350
  0
VERTEX
  8
BottomCopper
 10
452.342250
 20
363.416850
  0
SEQEND
  0
POLYLINE
  8
BottomCopper
 66
1
 10
0.000000
 20
0.000000
 30
0.000000
 40
0.444500
 41
0.444500
 70
1
  0
VERTEX
  8
BottomCopper
 10
454.818750
 20
363.416850
  0
VERTEX
  8
BottomCopper
 10
454.818750
 20
364.496350
  0
VERTEX
  8
BottomCopper
 10
454.374250
 20
364.496350
  0
VERTEX
  8
BottomCopper
 10
454.374250
 20
363.416850
  0
SEQEND
  0
POLYLINE
  8
BottomCopper
 66
1
 10
0.000000
 20
0.000000
 30
0.000000
 40
0.444500
 41
0.444500
 70
1
  0
VERTEX
  8
BottomCopper
 10
444.595250
 20
366.655350
  0
VERTEX
  8
BottomCopper
 10
444.595250
 20
367.099850
  0
VERTEX
  8
BottomCopper
 10
443.515750
 20
367.099850
  0
VERTEX
  8
BottomCopper
 10
443.515750
 20
366.655350
  0
SEQEND
  0
POLYLINE
  8
BottomCopper
 66
1
 10
0.000000
 20
0.000000
 30
0.000000
 40
0.444500
 41
0.444500
 70
1
  0
VERTEX
  8
BottomCopper
 10
444.595250
 20
364.623350
  0
VERTEX
  8
BottomCopper
 10
444.595250
 20
365.067850
  0
VERTEX
  8
BottomCopper
 10
443.515750
 20
365.067850
  0
VERTEX
  8
BottomCopper
 10
443.515750
 20
364.623350
  0
SEQEND
  0
POLYLINE
  8
BottomCopper
 66
1
 10
0.000000
 20
0.000000
 30
0.000000
 40
0.444500
 41
0.444500
 70
1
  0
VERTEX
  8
BottomCopper
 10
417.925250
 20
357.638350
  0
VERTEX
  8
BottomCopper
 10
417.925250
 20
358.082850
  0
VERTEX
  8
BottomCopper
 10
416.845750
 20
358.082850
  0
VERTEX
  8
BottomCopper
 10
416.845750
 20
357.638350
  0
SEQEND
  0
POLYLINE
  8
BottomCopper
 66
1
 10
0.000000
 20
0.000000
 30
0.000000
 40
0.444500
 41
0.444500
 70
1
  0
VERTEX
  8
BottomCopper
 10
417.925250
 20
359.670350
  0
VERTEX
  8
BottomCopper
 10
417.925250
 20
360.114850
  0
VERTEX
  8
BottomCopper
 10
416.845750
 20
360.114850
  0
VERTEX
  8
BottomCopper
 10
416.845750
 20
359.670350
  0
SEQEND
  0
POLYLINE
  8
BottomCopper
 66
1
 10
0.000000
 20
0.000000
 30
0.000000
 40
0.444500
 41
0.444500
 70
1
  0
VERTEX
  8
BottomCopper
 10
374.745250
 20
339.858350
  0
VERTEX
  8
BottomCopper
 10
374.745250
 20
340.302850
  0
VERTEX
  8
BottomCopper
 10
373.665750
 20
340.302850
  0
VERTEX
  8
BottomCopper
 10
373.665750
 20
339.858350
  0
SEQEND
  0
POLYLINE
  8
BottomCopper
 66
1
 10
0.000000
 20
0.000000
 30
0.000000
 40
0.444500
 41
0.444500
 70
1
  0
VERTEX
  8
BottomCopper
 10
374.745250
 20
341.890350
  0
VERTEX
  8
BottomCopper
 10
374.745250
 20
342.334850
  0
VERTEX
  8
BottomCopper
 10
373.665750
 20
342.334850
  0
VERTEX
  8
BottomCopper
 10
373.665750
 20
341.890350
  0
SEQEND
  0
POLYLINE
  8
BottomCopper
 66
1
 10
0.000000
 20
0.000000
 30
0.000000
 40
0.444500
 41
0.444500
 70
1
  0
VERTEX
  8
BottomCopper
 10
379.825250
 20
339.858350
  0
VERTEX
  8
BottomCopper
 10
379.825250
 20
340.302850
  0
VERTEX
  8
BottomCopper
 10
378.745750
 20
340.302850
  0
VERTEX
  8
BottomCopper
 10
378.745750
 20
339.858350
  0
SEQEND
  0
POLYLINE
  8
BottomCopper
 66
1
 10
0.000000
 20
0.000000
 30
0.000000
 40
0.444500
 41
0.444500
 70
1
  0
VERTEX
  8
BottomCopper
 10
379.825250
 20
341.890350
  0
VERTEX
  8
BottomCopper
 10
379.825250
 20
342.334850
  0
VERTEX
  8
BottomCopper
 10
378.745750
 20
342.334850
  0
VERTEX
  8
BottomCopper
 10
378.745750
 20
341.890350
  0
SEQEND
  0
POLYLINE
  8
BottomCopper
 66
1
 10
0.000000
 20
0.000000
 30
0.000000
 40
0.444500
 41
0.444500
 70
1
  0
VERTEX
  8
BottomCopper
 10
384.905250
 20
339.858350
  0
VERTEX
  8
BottomCopper
 10
384.905250
 20
340.302850
  0
VERTEX
  8
BottomCopper
 10
383.825750
 20
340.302850
  0
VERTEX
  8
BottomCopper
 10
383.825750
 20
339.858350
  0
SEQEND
  0
POLYLINE
  8
BottomCopper
 66
1
 10
0.000000
 20
0.000000
 30
0.000000
 40
0.444500
 41
0.444500
 70
1
  0
VERTEX
  8
BottomCopper
 10
384.905250
 20
341.890350
  0
VERTEX
  8
BottomCopper
 10
384.905250
 20
342.334850
  0
VERTEX
  8
BottomCopper
 10
383.825750
 20
342.334850
  0
VERTEX
  8
BottomCopper
 10
383.825750
 20
341.890350
  0
SEQEND
  0
POLYLINE
  8
BottomCopper
 66
1
 10
0.000000
 20
0.000000
 30
0.000000
 40
0.444500
 41
0.444500
 70
1
  0
VERTEX
  8
BottomCopper
 10
389.985250
 20
339.858350
  0
VERTEX
  8
BottomCopper
 10
389.985250
 20
340.302850
  0
VERTEX
  8
BottomCopper
 10
388.905750
 20
340.302850
  0
VERTEX
  8
BottomCopper
 10
388.905750
 20
339.858350
  0
SEQEND
  0
POLYLINE
  8
BottomCopper
 66
1
 10
0.000000
 20
0.000000
 30
0.000000
 40
0.444500
 41
0.444500
 70
1
  0
VERTEX
  8
BottomCopper
 10
389.985250
 20
341.890350
  0
VERTEX
  8
BottomCopper
 10
389.985250
 20
342.334850
  0
VERTEX
  8
BottomCopper
 10
388.905750
 20
342.334850
  0
VERTEX
  8
BottomCopper
 10
388.905750
 20
341.890350
  0
SEQEND
  0
POLYLINE
  8
BottomCopper
 66
1
 10
0.000000
 20
0.000000
 30
0.000000
 40
0.444500
 41
0.444500
 70
1
  0
VERTEX
  8
BottomCopper
 10
420.465250
 20
338.588350
  0
VERTEX
  8
BottomCopper
 10
420.465250
 20
339.032850
  0
VERTEX
  8
BottomCopper
 10
419.385750
 20
339.032850
  0
VERTEX
  8
BottomCopper
 10
419.385750
 20
338.588350
  0
SEQEND
  0
POLYLINE
  8
BottomCopper
 66
1
 10
0.000000
 20
0.000000
 30
0.000000
 40
0.444500
 41
0.444500
 70
1
  0
VERTEX
  8
BottomCopper
 10
420.465250
 20
340.620350
  0
VERTEX
  8
BottomCopper
 10
420.465250
 20
341.064850
  0
VERTEX
  8
BottomCopper
 10
419.385750
 20
341.064850
  0
VERTEX
  8
BottomCopper
 10
419.385750
 20
340.620350
  0
SEQEND
  0
POLYLINE
  8
BottomCopper
 66
1
 10
0.000000
 20
0.000000
 30
0.000000
 40
0.444500
 41
0.444500
 70
1
  0
VERTEX
  8
BottomCopper
 10
426.180250
 20
338.588350
  0
VERTEX
  8
BottomCopper
 10
426.180250
 20
339.032850
  0
VERTEX
  8
BottomCopper
 10
425.100750
 20
339.032850
  0
VERTEX
  8
BottomCopper
 10
425.100750
 20
338.588350
  0
SEQEND
  0
POLYLINE
  8
BottomCopper
 66
1
 10
0.000000
 20
0.000000
 30
0.000000
 40
0.444500
 41
0.444500
 70
1
  0
VERTEX
  8
BottomCopper
 10
426.180250
 20
340.620350
  0
VERTEX
  8
BottomCopper
 10
426.180250
 20
341.064850
  0
VERTEX
  8
BottomCopper
 10
425.100750
 20
341.064850
  0
VERTEX
  8
BottomCopper
 10
425.100750
 20
340.620350
  0
SEQEND
  0
POLYLINE
  8
BottomCopper
 66
1
 10
0.000000
 20
0.000000
 30
0.000000
 40
1.016000
 41
1.016000
 70
1
  0
VERTEX
  8
BottomCopper
 10
365.188500
 20
346.837000
  0
VERTEX
  8
BottomCopper
 10
365.188500
 20
347.853000
  0
VERTEX
  8
BottomCopper
 10
364.172500
 20
347.853000
  0
VERTEX
  8
BottomCopper
 10
364.172500
 20
346.837000
  0
SEQEND
  0
POLYLINE
  8
BottomCopper
 66
1
 10
0.000000
 20
0.000000
 30
0.000000
 40
1.016000
 41
1.016000
 70
1
  0
VERTEX
  8
BottomCopper
 10
365.188500
 20
350.342200
  0
VERTEX
  8
BottomCopper
 10
365.188500
 20
351.358200
  0
VERTEX
  8
BottomCopper
 10
364.172500
 20
351.358200
  0
VERTEX
  8
BottomCopper
 10
364.172500
 20
350.342200
  0
SEQEND
  0
POLYLINE
  8
BottomCopper
 66
1
 10
0.000000
 20
0.000000
 30
0.000000
 40
0.444500
 41
0.444500
 70
1
  0
VERTEX
  8
BottomCopper
 10
360.775250
 20
351.415350
  0
VERTEX
  8
BottomCopper
 10
360.775250
 20
351.859850
  0
VERTEX
  8
BottomCopper
 10
359.695750
 20
351.859850
  0
VERTEX
  8
BottomCopper
 10
359.695750
 20
351.415350
  0
SEQEND
  0
POLYLINE
  8
BottomCopper
 66
1
 10
0.000000
 20
0.000000
 30
0.000000
 40
0.444500
 41
0.444500
 70
1
  0
VERTEX
  8
BottomCopper
 10
360.775250
 20
349.383350
  0
VERTEX
  8
BottomCopper
 10
360.775250
 20
349.827850
  0
VERTEX
  8
BottomCopper
 10
359.695750
 20
349.827850
  0
VERTEX
  8
BottomCopper
 10
359.695750
 20
349.383350
  0
SEQEND
  0
POLYLINE
  8
BottomCopper
 66
1
 10
0.000000
 20
0.000000
 30
0.000000
 40
0.444500
 41
0.444500
 70
1
  0
VERTEX
  8
BottomCopper
 10
369.030250
 20
355.098350
  0
VERTEX
  8
BottomCopper
 10
369.030250
 20
355.542850
  0
VERTEX
  8
BottomCopper
 10
367.950750
 20
355.542850
  0
VERTEX
  8
BottomCopper
 10
367.950750
 20
355.098350
  0
SEQEND
  0
POLYLINE
  8
BottomCopper
 66
1
 10
0.000000
 20
0.000000
 30
0.000000
 40
0.444500
 41
0.444500
 70
1
  0
VERTEX
  8
BottomCopper
 10
369.030250
 20
357.130350
  0
VERTEX
  8
BottomCopper
 10
369.030250
 20
357.574850
  0
VERTEX
  8
BottomCopper
 10
367.950750
 20
357.574850
  0
VERTEX
  8
BottomCopper
 10
367.950750
 20
357.130350
  0
SEQEND
  0
POLYLINE
  8
BottomCopper
 66
1
 10
0.000000
 20
0.000000
 30
0.000000
 40
0.762000
 41
0.762000
 70
1
  0
VERTEX
  8
BottomCopper
 42
1.000000
 10
426.529500
 20
372.846600
  0
VERTEX
  8
BottomCopper
 42
1.000000
 10
427.291500
 20
372.846600
  0
SEQEND
  0
POLYLINE
  8
BottomCopper
 66
1
 10
0.000000
 20
0.000000
 30
0.000000
 40
0.762000
 41
0.762000
 70
1
  0
VERTEX
  8
BottomCopper
 42
1.000000
 10
401.129500
 20
372.846600
  0
VERTEX
  8
BottomCopper
 42
1.000000
 10
401.891500
 20
372.846600
  0
SEQEND
  0
POLYLINE
  8
BottomCopper
 66
1
 10
0.000000
 20
0.000000
 30
0.000000
 40
0.762000
 41
0.762000
 70
1
  0
VERTEX
  8
BottomCopper
 42
1.000000
 10
373.189500
 20
372.846600
  0
VERTEX
  8
BottomCopper
 42
1.000000
 10
373.951500
 20
372.846600
  0
SEQEND
  0
POLYLINE
  8
BottomCopper
 66
1
 10
0.000000
 20
0.000000
 30
0.000000
 40
0.762000
 41
0.762000
 70
1
  0
VERTEX
  8
BottomCopper
 42
1.000000
 10
398.589500
 20
372.846600
  0
VERTEX
  8
BottomCopper
 42
1.000000
 10
399.351500
 20
372.846600
  0
SEQEND
  0
POLYLINE
  8
BottomCopper
 66
1
 10
0.000000
 20
0.000000
 30
0.000000
 40
1.016000
 41
1.016000
 70
1
  0
VERTEX
  8
BottomCopper
 10
398.843500
 20
358.470200
  0
VERTEX
  8
BottomCopper
 10
398.843500
 20
359.486200
  0
VERTEX
  8
BottomCopper
 10
397.827500
 20
359.486200
  0
VERTEX
  8
BottomCopper
 10
397.827500
 20
358.470200
  0
SEQEND
  0
POLYLINE
  8
BottomCopper
 66
1
 10
0.000000
 20
0.000000
 30
0.000000
 40
1.016000
 41
1.016000
 70
1
  0
VERTEX
  8
BottomCopper
 10
398.843500
 20
354.965000
  0
VERTEX
  8
BottomCopper
 10
398.843500
 20
355.981000
  0
VERTEX
  8
BottomCopper
 10
397.827500
 20
355.981000
  0
VERTEX
  8
BottomCopper
 10
397.827500
 20
354.965000
  0
SEQEND
  0
POLYLINE
  8
BottomCopper
 66
1
 10
0.000000
 20
0.000000
 30
0.000000
 40
0.508000
 41
0.508000
 70
1
  0
VERTEX
  8
BottomCopper
 10
399.097500
 20
339.953600
  0
VERTEX
  8
BottomCopper
 10
399.097500
 20
340.461600
  0
VERTEX
  8
BottomCopper
 10
397.573500
 20
340.461600
  0
VERTEX
  8
BottomCopper
 10
397.573500
 20
339.953600
  0
SEQEND
  0
POLYLINE
  8
BottomCopper
 66
1
 10
0.000000
 20
0.000000
 30
0.000000
 40
0.508000
 41
0.508000
 70
1
  0
VERTEX
  8
BottomCopper
 10
399.097500
 20
342.747600
  0
VERTEX
  8
BottomCopper
 10
399.097500
 20
343.255600
  0
VERTEX
  8
BottomCopper
 10
397.573500
 20
343.255600
  0
VERTEX
  8
BottomCopper
 10
397.573500
 20
342.747600
  0
SEQEND
  0
POLYLINE
  8
BottomCopper
 66
1
 10
0.000000
 20
0.000000
 30
0.000000
 40
1.016000
 41
1.016000
 70
1
  0
VERTEX
  8
BottomCopper
 10
389.851900
 20
346.303600
  0
VERTEX
  8
BottomCopper
 10
389.851900
 20
347.319600
  0
VERTEX
  8
BottomCopper
 10
388.835900
 20
347.319600
  0
VERTEX
  8
BottomCopper
 10
388.835900
 20
346.303600
  0
SEQEND
  0
POLYLINE
  8
BottomCopper
 66
1
 10
0.000000
 20
0.000000
 30
0.000000
 40
1.016000
 41
1.016000
 70
1
  0
VERTEX
  8
BottomCopper
 10
393.357100
 20
346.303600
  0
VERTEX
  8
BottomCopper
 10
393.357100
 20
347.319600
  0
VERTEX
  8
BottomCopper
 10
392.341100
 20
347.319600
  0
VERTEX
  8
BottomCopper
 10
392.341100
 20
346.303600
  0
SEQEND
  0
POLYLINE
  8
BottomCopper
 66
1
 10
0.000000
 20
0.000000
 30
0.000000
 40
0.508000
 41
0.508000
 70
1
  0
VERTEX
  8
BottomCopper
 10
463.232500
 20
336.143600
  0
VERTEX
  8
BottomCopper
 10
463.232500
 20
336.651600
  0
VERTEX
  8
BottomCopper
 10
461.708500
 20
336.651600
  0
VERTEX
  8
BottomCopper
 10
461.708500
 20
336.143600
  0
SEQEND
  0
POLYLINE
  8
BottomCopper
 66
1
 10
0.000000
 20
0.000000
 30
0.000000
 40
0.508000
 41
0.508000
 70
1
  0
VERTEX
  8
BottomCopper
 10
463.232500
 20
338.937600
  0
VERTEX
  8
BottomCopper
 10
463.232500
 20
339.445600
  0
VERTEX
  8
BottomCopper
 10
461.708500
 20
339.445600
  0
VERTEX
  8
BottomCopper
 10
461.708500
 20
338.937600
  0
SEQEND
  0
POLYLINE
  8
BottomCopper
 66
1
 10
0.000000
 20
0.000000
 30
0.000000
 40
0.508000
 41
0.508000
 70
1
  0
VERTEX
  8
BottomCopper
 10
449.008500
 20
336.524600
  0
VERTEX
  8
BottomCopper
 10
449.008500
 20
338.048600
  0
VERTEX
  8
BottomCopper
 10
448.500500
 20
338.048600
  0
VERTEX
  8
BottomCopper
 10
448.500500
 20
336.524600
  0
SEQEND
  0
POLYLINE
  8
BottomCopper
 66
1
 10
0.000000
 20
0.000000
 30
0.000000
 40
0.508000
 41
0.508000
 70
1
  0
VERTEX
  8
BottomCopper
 10
446.214500
 20
336.524600
  0
VERTEX
  8
BottomCopper
 10
446.214500
 20
338.048600
  0
VERTEX
  8
BottomCopper
 10
445.706500
 20
338.048600
  0
VERTEX
  8
BottomCopper
 10
445.706500
 20
336.524600
  0
SEQEND
  0
POLYLINE
  8
BottomCopper
 66
1
 10
0.000000
 20
0.000000
 30
0.000000
 40
1.181100
 41
1.181100
 70
1
  0
VERTEX
  8
BottomCopper
 10
399.688050
 20
348.735650
  0
VERTEX
  8
BottomCopper
 10
399.688050
 20
349.967550
  0
VERTEX
  8
BottomCopper
 10
398.506950
 20
349.967550
  0
VERTEX
  8
BottomCopper
 10
398.506950
 20
348.735650
  0
SEQEND
  0
POLYLINE
  8
BottomCopper
 66
1
 10
0.000000
 20
0.000000
 30
0.000000
 40
1.181100
 41
1.181100
 70
1
  0
VERTEX
  8
BottomCopper
 10
405.784050
 20
348.735650
  0
VERTEX
  8
BottomCopper
 10
405.784050
 20
349.967550
  0
VERTEX
  8
BottomCopper
 10
404.602950
 20
349.967550
  0
VERTEX
  8
BottomCopper
 10
404.602950
 20
348.735650
  0
SEQEND
  0
POLYLINE
  8
BottomCopper
 66
1
 10
0.000000
 20
0.000000
 30
0.000000
 40
0.444500
 41
0.444500
 70
1
  0
VERTEX
  8
BottomCopper
 10
429.990250
 20
360.940350
  0
VERTEX
  8
BottomCopper
 10
429.990250
 20
361.384850
  0
VERTEX
  8
BottomCopper
 10
428.910750
 20
361.384850
  0
VERTEX
  8
BottomCopper
 10
428.910750
 20
360.940350
  0
SEQEND
  0
POLYLINE
  8
BottomCopper
 66
1
 10
0.000000
 20
0.000000
 30
0.000000
 40
0.444500
 41
0.444500
 70
1
  0
VERTEX
  8
BottomCopper
 10
429.990250
 20
358.908350
  0
VERTEX
  8
BottomCopper
 10
429.990250
 20
359.352850
  0
VERTEX
  8
BottomCopper
 10
428.910750
 20
359.352850
  0
VERTEX
  8
BottomCopper
 10
428.910750
 20
358.908350
  0
SEQEND
  0
POLYLINE
  8
BottomCopper
 66
1
 10
0.000000
 20
0.000000
 30
0.000000
 40
0.444500
 41
0.444500
 70
1
  0
VERTEX
  8
BottomCopper
 10
429.990250
 20
354.463350
  0
VERTEX
  8
BottomCopper
 10
429.990250
 20
354.907850
  0
VERTEX
  8
BottomCopper
 10
428.910750
 20
354.907850
  0
VERTEX
  8
BottomCopper
 10
428.910750
 20
354.463350
  0
SEQEND
  0
POLYLINE
  8
BottomCopper
 66
1
 10
0.000000
 20
0.000000
 30
0.000000
 40
0.444500
 41
0.444500
 70
1
  0
VERTEX
  8
BottomCopper
 10
429.990250
 20
356.495350
  0
VERTEX
  8
BottomCopper
 10
429.990250
 20
356.939850
  0
VERTEX
  8
BottomCopper
 10
428.910750
 20
356.939850
  0
VERTEX
  8
BottomCopper
 10
428.910750
 20
356.495350
  0
SEQEND
  0
POLYLINE
  8
BottomCopper
 66
1
 10
0.000000
 20
0.000000
 30
0.000000
 40
0.444500
 41
0.444500
 70
1
  0
VERTEX
  8
BottomCopper
 10
429.990250
 20
350.018350
  0
VERTEX
  8
BottomCopper
 10
429.990250
 20
350.462850
  0
VERTEX
  8
BottomCopper
 10
428.910750
 20
350.462850
  0
VERTEX
  8
BottomCopper
 10
428.910750
 20
350.018350
  0
SEQEND
  0
POLYLINE
  8
BottomCopper
 66
1
 10
0.000000
 20
0.000000
 30
0.000000
 40
0.444500
 41
0.444500
 70
1
  0
VERTEX
  8
BottomCopper
 10
429.990250
 20
352.050350
  0
VERTEX
  8
BottomCopper
 10
429.990250
 20
352.494850
  0
VERTEX
  8
BottomCopper
 10
428.910750
 20
352.494850
  0
VERTEX
  8
BottomCopper
 10
428.910750
 20
352.050350
  0
SEQEND
  0
POLYLINE
  8
BottomCopper
 66
1
 10
0.000000
 20
0.000000
 30
0.000000
 40
0.444500
 41
0.444500
 70
1
  0
VERTEX
  8
BottomCopper
 10
429.990250
 20
345.573350
  0
VERTEX
  8
BottomCopper
 10
429.990250
 20
346.017850
  0
VERTEX
  8
BottomCopper
 10
428.910750
 20
346.017850
  0
VERTEX
  8
BottomCopper
 10
428.910750
 20
345.573350
  0
SEQEND
  0
POLYLINE
  8
BottomCopper
 66
1
 10
0.000000
 20
0.000000
 30
0.000000
 40
0.444500
 41
0.444500
 70
1
  0
VERTEX
  8
BottomCopper
 10
429.990250
 20
347.605350
  0
VERTEX
  8
BottomCopper
 10
429.990250
 20
348.049850
  0
VERTEX
  8
BottomCopper
 10
428.910750
 20
348.049850
  0
VERTEX
  8
BottomCopper
 10
428.910750
 20
347.605350
  0
SEQEND
  0
POLYLINE
  8
BottomCopper
 66
1
 10
0.000000
 20
0.000000
 30
0.000000
 40
0.444500
 41
0.444500
 70
1
  0
VERTEX
  8
BottomCopper
 10
417.925250
 20
353.193350
  0
VERTEX
  8
BottomCopper
 10
417.925250
 20
353.637850
  0
VERTEX
  8
BottomCopper
 10
416.845750
 20
353.637850
  0
VERTEX
  8
BottomCopper
 10
416.845750
 20
353.193350
  0
SEQEND
  0
POLYLINE
  8
BottomCopper
 66
1
 10
0.000000
 20
0.000000
 30
0.000000
 40
0.444500
 41
0.444500
 70
1
  0
VERTEX
  8
BottomCopper
 10
417.925250
 20
355.225350
  0
VERTEX
  8
BottomCopper
 10
417.925250
 20
355.669850
  0
VERTEX
  8
BottomCopper
 10
416.845750
 20
355.669850
  0
VERTEX
  8
BottomCopper
 10
416.845750
 20
355.225350
  0
SEQEND
  0
POLYLINE
  8
BottomCopper
 66
1
 10
0.000000
 20
0.000000
 30
0.000000
 40
0.762000
 41
0.762000
 70
1
  0
VERTEX
  8
BottomCopper
 42
1.000000
 10
362.394500
 20
374.751600
  0
VERTEX
  8
BottomCopper
 42
1.000000
 10
363.156500
 20
374.751600
  0
SEQEND
  0
POLYLINE
  8
BottomCopper
 66
1
 10
0.000000
 20
0.000000
 30
0.000000
 40
0.762000
 41
0.762000
 70
1
  0
VERTEX
  8
BottomCopper
 42
1.000000
 10
362.394500
 20
372.211600
  0
VERTEX
  8
BottomCopper
 42
1.000000
 10
363.156500
 20
372.211600
  0
SEQEND
  0
POLYLINE
  8
BottomCopper
 66
1
 10
0.000000
 20
0.000000
 30
0.000000
 40
0.698500
 41
0.698500
 70
1
  0
VERTEX
  8
BottomCopper
 42
1.000000
 10
397.249650
 20
364.210600
  0
VERTEX
  8
BottomCopper
 42
1.000000
 10
397.948150
 20
364.210600
  0
SEQEND
  0
POLYLINE
  8
BottomCopper
 66
1
 10
0.000000
 20
0.000000
 30
0.000000
 40
0.698500
 41
0.698500
 70
1
  0
VERTEX
  8
BottomCopper
 42
1.000000
 10
397.249650
 20
366.217200
  0
VERTEX
  8
BottomCopper
 42
1.000000
 10
397.948150
 20
366.217200
  0
SEQEND
  0
POLYLINE
  8
BottomCopper
 66
1
 10
0.000000
 20
0.000000
 30
0.000000
 40
0.698500
 41
0.698500
 70
1
  0
VERTEX
  8
BottomCopper
 42
1.000000
 10
399.230850
 20
364.210600
  0
VERTEX
  8
BottomCopper
 42
1.000000
 10
399.929350
 20
364.210600
  0
SEQEND
  0
POLYLINE
  8
BottomCopper
 66
1
 10
0.000000
 20
0.000000
 30
0.000000
 40
0.698500
 41
0.698500
 70
1
  0
VERTEX
  8
BottomCopper
 42
1.000000
 10
399.230850
 20
366.217200
  0
VERTEX
  8
BottomCopper
 42
1.000000
 10
399.929350
 20
366.217200
  0
SEQEND
  0
POLYLINE
  8
BottomCopper
 66
1
 10
0.000000
 20
0.000000
 30
0.000000
 40
0.698500
 41
0.698500
 70
1
  0
VERTEX
  8
BottomCopper
 42
1.000000
 10
401.237450
 20
364.210600
  0
VERTEX
  8
BottomCopper
 42
1.000000
 10
401.935950
 20
364.210600
  0
SEQEND
  0
POLYLINE
  8
BottomCopper
 66
1
 10
0.000000
 20
0.000000
 30
0.000000
 40
0.698500
 41
0.698500
 70
1
  0
VERTEX
  8
BottomCopper
 42
1.000000
 10
401.237450
 20
366.217200
  0
VERTEX
  8
BottomCopper
 42
1.000000
 10
401.935950
 20
366.217200
  0
SEQEND
  0
POLYLINE
  8
BottomCopper
 66
1
 10
0.000000
 20
0.000000
 30
0.000000
 40
0.698500
 41
0.698500
 70
1
  0
VERTEX
  8
BottomCopper
 42
1.000000
 10
403.244050
 20
364.210600
  0
VERTEX
  8
BottomCopper
 42
1.000000
 10
403.942550
 20
364.210600
  0
SEQEND
  0
POLYLINE
  8
BottomCopper
 66
1
 10
0.000000
 20
0.000000
 30
0.000000
 40
0.698500
 41
0.698500
 70
1
  0
VERTEX
  8
BottomCopper
 42
1.000000
 10
403.244050
 20
366.217200
  0
VERTEX
  8
BottomCopper
 42
1.000000
 10
403.942550
 20
366.217200
  0
SEQEND
  0
POLYLINE
  8
BottomCopper
 66
1
 10
0.000000
 20
0.000000
 30
0.000000
 40
0.698500
 41
0.698500
 70
1
  0
VERTEX
  8
BottomCopper
 42
1.000000
 10
405.250650
 20
364.210600
  0
VERTEX
  8
BottomCopper
 42
1.000000
 10
405.949150
 20
364.210600
  0
SEQEND
  0
POLYLINE
  8
BottomCopper
 66
1
 10
0.000000
 20
0.000000
 30
0.000000
 40
0.698500
 41
0.698500
 70
1
  0
VERTEX
  8
BottomCopper
 42
1.000000
 10
405.250650
 20
366.217200
  0
VERTEX
  8
BottomCopper
 42
1.000000
 10
405.949150
 20
366.217200
  0
SEQEND
  0
POLYLINE
  8
BottomCopper
 66
1
 10
0.000000
 20
0.000000
 30
0.000000
 40
0.698500
 41
0.698500
 70
1
  0
VERTEX
  8
BottomCopper
 42
1.000000
 10
407.231850
 20
364.210600
  0
VERTEX
  8
BottomCopper
 42
1.000000
 10
407.930350
 20
364.210600
  0
SEQEND
  0
POLYLINE
  8
BottomCopper
 66
1
 10
0.000000
 20
0.000000
 30
0.000000
 40
0.698500
 41
0.698500
 70
1
  0
VERTEX
  8
BottomCopper
 42
1.000000
 10
407.231850
 20
366.217200
  0
VERTEX
  8
BottomCopper
 42
1.000000
 10
407.930350
 20
366.217200
  0
SEQEND
  0
POLYLINE
  8
BottomCopper
 66
1
 10
0.000000
 20
0.000000
 30
0.000000
 40
0.698500
 41
0.698500
 70
1
  0
VERTEX
  8
BottomCopper
 42
1.000000
 10
409.238450
 20
364.210600
  0
VERTEX
  8
BottomCopper
 42
1.000000
 10
409.936950
 20
364.210600
  0
SEQEND
  0
POLYLINE
  8
BottomCopper
 66
1
 10
0.000000
 20
0.000000
 30
0.000000
 40
0.698500
 41
0.698500
 70
1
  0
VERTEX
  8
BottomCopper
 42
1.000000
 10
409.238450
 20
366.217200
  0
VERTEX
  8
BottomCopper
 42
1.000000
 10
409.936950
 20
366.217200
  0
SEQEND
  0
POLYLINE
  8
BottomCopper
 66
1
 10
0.000000
 20
0.000000
 30
0.000000
 40
0.698500
 41
0.698500
 70
1
  0
VERTEX
  8
BottomCopper
 42
1.000000
 10
411.245050
 20
364.210600
  0
VERTEX
  8
BottomCopper
 42
1.000000
 10
411.943550
 20
364.210600
  0
SEQEND
  0
POLYLINE
  8
BottomCopper
 66
1
 10
0.000000
 20
0.000000
 30
0.000000
 40
0.698500
 41
0.698500
 70
1
  0
VERTEX
  8
BottomCopper
 42
1.000000
 10
411.245050
 20
366.217200
  0
VERTEX
  8
BottomCopper
 42
1.000000
 10
411.943550
 20
366.217200
  0
SEQEND
  0
POLYLINE
  8
BottomCopper
 66
1
 10
0.000000
 20
0.000000
 30
0.000000
 40
0.698500
 41
0.698500
 70
1
  0
VERTEX
  8
BottomCopper
 42
1.000000
 10
413.251650
 20
364.210600
  0
VERTEX
  8
BottomCopper
 42
1.000000
 10
413.950150
 20
364.210600
  0
SEQEND
  0
POLYLINE
  8
BottomCopper
 66
1
 10
0.000000
 20
0.000000
 30
0.000000
 40
0.698500
 41
0.698500
 70
1
  0
VERTEX
  8
BottomCopper
 42
1.000000
 10
413.251650
 20
366.217200
  0
VERTEX
  8
BottomCopper
 42
1.000000
 10
413.950150
 20
366.217200
  0
SEQEND
  0
POLYLINE
  8
BottomCopper
 66
1
 10
0.000000
 20
0.000000
 30
0.000000
 40
0.698500
 41
0.698500
 70
1
  0
VERTEX
  8
BottomCopper
 42
1.000000
 10
415.232850
 20
364.210600
  0
VERTEX
  8
BottomCopper
 42
1.000000
 10
415.931350
 20
364.210600
  0
SEQEND
  0
POLYLINE
  8
BottomCopper
 66
1
 10
0.000000
 20
0.000000
 30
0.000000
 40
0.698500
 41
0.698500
 70
1
  0
VERTEX
  8
BottomCopper
 42
1.000000
 10
415.232850
 20
366.217200
  0
VERTEX
  8
BottomCopper
 42
1.000000
 10
415.931350
 20
366.217200
  0
SEQEND
  0
POLYLINE
  8
BottomCopper
 66
1
 10
0.000000
 20
0.000000
 30
0.000000
 40
0.698500
 41
0.698500
 70
1
  0
VERTEX
  8
BottomCopper
 42
1.000000
 10
335.045050
 20
375.107200
  0
VERTEX
  8
BottomCopper
 42
1.000000
 10
335.743550
 20
375.107200
  0
SEQEND
  0
POLYLINE
  8
BottomCopper
 66
1
 10
0.000000
 20
0.000000
 30
0.000000
 40
0.698500
 41
0.698500
 70
1
  0
VERTEX
  8
BottomCopper
 42
1.000000
 10
337.051650
 20
375.107200
  0
VERTEX
  8
BottomCopper
 42
1.000000
 10
337.750150
 20
375.107200
  0
SEQEND
  0
POLYLINE
  8
BottomCopper
 66
1
 10
0.000000
 20
0.000000
 30
0.000000
 40
0.698500
 41
0.698500
 70
1
  0
VERTEX
  8
BottomCopper
 42
1.000000
 10
339.058250
 20
375.107200
  0
VERTEX
  8
BottomCopper
 42
1.000000
 10
339.756750
 20
375.107200
  0
SEQEND
  0
POLYLINE
  8
BottomCopper
 66
1
 10
0.000000
 20
0.000000
 30
0.000000
 40
0.698500
 41
0.698500
 70
1
  0
VERTEX
  8
BottomCopper
 42
1.000000
 10
341.064850
 20
375.107200
  0
VERTEX
  8
BottomCopper
 42
1.000000
 10
341.763350
 20
375.107200
  0
SEQEND
  0
POLYLINE
  8
BottomCopper
 66
1
 10
0.000000
 20
0.000000
 30
0.000000
 40
0.698500
 41
0.698500
 70
1
  0
VERTEX
  8
BottomCopper
 42
1.000000
 10
343.020650
 20
375.107200
  0
VERTEX
  8
BottomCopper
 42
1.000000
 10
343.719150
 20
375.107200
  0
SEQEND
  0
POLYLINE
  8
BottomCopper
 66
1
 10
0.000000
 20
0.000000
 30
0.000000
 40
0.698500
 41
0.698500
 70
1
  0
VERTEX
  8
BottomCopper
 42
1.000000
 10
335.045050
 20
373.100600
  0
VERTEX
  8
BottomCopper
 42
1.000000
 10
335.743550
 20
373.100600
  0
SEQEND
  0
POLYLINE
  8
BottomCopper
 66
1
 10
0.000000
 20
0.000000
 30
0.000000
 40
0.698500
 41
0.698500
 70
1
  0
VERTEX
  8
BottomCopper
 42
1.000000
 10
337.051650
 20
373.100600
  0
VERTEX
  8
BottomCopper
 42
1.000000
 10
337.750150
 20
373.100600
  0
SEQEND
  0
POLYLINE
  8
BottomCopper
 66
1
 10
0.000000
 20
0.000000
 30
0.000000
 40
0.698500
 41
0.698500
 70
1
  0
VERTEX
  8
BottomCopper
 42
1.000000
 10
339.058250
 20
373.100600
  0
VERTEX
  8
BottomCopper
 42
1.000000
 10
339.756750
 20
373.100600
  0
SEQEND
  0
POLYLINE
  8
BottomCopper
 66
1
 10
0.000000
 20
0.000000
 30
0.000000
 40
0.698500
 41
0.698500
 70
1
  0
VERTEX
  8
BottomCopper
 42
1.000000
 10
341.064850
 20
373.100600
  0
VERTEX
  8
BottomCopper
 42
1.000000
 10
341.763350
 20
373.100600
  0
SEQEND
  0
POLYLINE
  8
BottomCopper
 66
1
 10
0.000000
 20
0.000000
 30
0.000000
 40
0.698500
 41
0.698500
 70
1
  0
VERTEX
  8
BottomCopper
 42
1.000000
 10
343.020650
 20
373.100600
  0
VERTEX
  8
BottomCopper
 42
1.000000
 10
343.719150
 20
373.100600
  0
SEQEND
  0
POLYLINE
  8
BottomCopper
 66
1
 10
0.000000
 20
0.000000
 30
0.000000
 40
0.762000
 41
0.762000
 70
1
  0
VERTEX
  8
BottomCopper
 42
1.000000
 10
373.189500
 20
368.401600
  0
VERTEX
  8
BottomCopper
 42
1.000000
 10
373.951500
 20
368.401600
  0
SEQEND
  0
POLYLINE
  8
BottomCopper
 66
1
 10
0.000000
 20
0.000000
 30
0.000000
 40
0.825500
 41
0.825500
 70
1
  0
VERTEX
  8
BottomCopper
 42
1.000000
 10
466.959950
 20
362.686600
  0
VERTEX
  8
BottomCopper
 42
1.000000
 10
467.785450
 20
362.686600
  0
SEQEND
  0
POLYLINE
  8
BottomCopper
 66
1
 10
0.000000
 20
0.000000
 30
0.000000
 40
0.825500
 41
0.825500
 70
1
  0
VERTEX
  8
BottomCopper
 42
1.000000
 10
466.959950
 20
370.306600
  0
VERTEX
  8
BottomCopper
 42
1.000000
 10
467.785450
 20
370.306600
  0
SEQEND
  0
POLYLINE
  8
BottomCopper
 66
1
 10
0.000000
 20
0.000000
 30
0.000000
 40
0.825500
 41
0.825500
 70
1
  0
VERTEX
  8
BottomCopper
 42
1.000000
 10
466.959950
 20
365.226600
  0
VERTEX
  8
BottomCopper
 42
1.000000
 10
467.785450
 20
365.226600
  0
SEQEND
  0
POLYLINE
  8
BottomCopper
 66
1
 10
0.000000
 20
0.000000
 30
0.000000
 40
0.825500
 41
0.825500
 70
1
  0
VERTEX
  8
BottomCopper
 42
1.000000
 10
477.119950
 20
367.766600
  0
VERTEX
  8
BottomCopper
 42
1.000000
 10
477.945450
 20
367.766600
  0
SEQEND
  0
POLYLINE
  8
BottomCopper
 66
1
 10
0.000000
 20
0.000000
 30
0.000000
 40
0.825500
 41
0.825500
 70
1
  0
VERTEX
  8
BottomCopper
 42
1.000000
 10
477.119950
 20
370.306600
  0
VERTEX
  8
BottomCopper
 42
1.000000
 10
477.945450
 20
370.306600
  0
SEQEND
  0
POLYLINE
  8
BottomCopper
 66
1
 10
0.000000
 20
0.000000
 30
0.000000
 40
0.825500
 41
0.825500
 70
1
  0
VERTEX
  8
BottomCopper
 42
1.000000
 10
477.119950
 20
362.686600
  0
VERTEX
  8
BottomCopper
 42
1.000000
 10
477.945450
 20
362.686600
  0
SEQEND
  0
POLYLINE
  8
BottomCopper
 66
1
 10
0.000000
 20
0.000000
 30
0.000000
 40
0.825500
 41
0.825500
 70
1
  0
VERTEX
  8
BottomCopper
 42
1.000000
 10
463.149950
 20
360.146600
  0
VERTEX
  8
BottomCopper
 42
1.000000
 10
463.975450
 20
360.146600
  0
SEQEND
  0
POLYLINE
  8
BottomCopper
 66
1
 10
0.000000
 20
0.000000
 30
0.000000
 40
0.825500
 41
0.825500
 70
1
  0
VERTEX
  8
BottomCopper
 42
1.000000
 10
470.769950
 20
360.146600
  0
VERTEX
  8
BottomCopper
 42
1.000000
 10
471.595450
 20
360.146600
  0
SEQEND
  0
POLYLINE
  8
BottomCopper
 66
1
 10
0.000000
 20
0.000000
 30
0.000000
 40
0.825500
 41
0.825500
 70
1
  0
VERTEX
  8
BottomCopper
 42
1.000000
 10
465.689950
 20
360.146600
  0
VERTEX
  8
BottomCopper
 42
1.000000
 10
466.515450
 20
360.146600
  0
SEQEND
  0
POLYLINE
  8
BottomCopper
 66
1
 10
0.000000
 20
0.000000
 30
0.000000
 40
0.825500
 41
0.825500
 70
1
  0
VERTEX
  8
BottomCopper
 42
1.000000
 10
468.229950
 20
349.986600
  0
VERTEX
  8
BottomCopper
 42
1.000000
 10
469.055450
 20
349.986600
  0
SEQEND
  0
POLYLINE
  8
BottomCopper
 66
1
 10
0.000000
 20
0.000000
 30
0.000000
 40
0.825500
 41
0.825500
 70
1
  0
VERTEX
  8
BottomCopper
 42
1.000000
 10
470.769950
 20
349.986600
  0
VERTEX
  8
BottomCopper
 42
1.000000
 10
471.595450
 20
349.986600
  0
SEQEND
  0
POLYLINE
  8
BottomCopper
 66
1
 10
0.000000
 20
0.000000
 30
0.000000
 40
0.825500
 41
0.825500
 70
1
  0
VERTEX
  8
BottomCopper
 42
1.000000
 10
463.149950
 20
349.986600
  0
VERTEX
  8
BottomCopper
 42
1.000000
 10
463.975450
 20
349.986600
  0
SEQEND
  0
POLYLINE
  8
BottomCopper
 66
1
 10
0.000000
 20
0.000000
 30
0.000000
 40
0.825500
 41
0.825500
 70
1
  0
VERTEX
  8
BottomCopper
 42
1.000000
 10
480.929950
 20
349.986600
  0
VERTEX
  8
BottomCopper
 42
1.000000
 10
481.755450
 20
349.986600
  0
SEQEND
  0
POLYLINE
  8
BottomCopper
 66
1
 10
0.000000
 20
0.000000
 30
0.000000
 40
0.825500
 41
0.825500
 70
1
  0
VERTEX
  8
BottomCopper
 42
1.000000
 10
473.309950
 20
349.986600
  0
VERTEX
  8
BottomCopper
 42
1.000000
 10
474.135450
 20
349.986600
  0
SEQEND
  0
POLYLINE
  8
BottomCopper
 66
1
 10
0.000000
 20
0.000000
 30
0.000000
 40
0.825500
 41
0.825500
 70
1
  0
VERTEX
  8
BottomCopper
 42
1.000000
 10
478.389950
 20
349.986600
  0
VERTEX
  8
BottomCopper
 42
1.000000
 10
479.215450
 20
349.986600
  0
SEQEND
  0
POLYLINE
  8
BottomCopper
 66
1
 10
0.000000
 20
0.000000
 30
0.000000
 40
0.825500
 41
0.825500
 70
1
  0
VERTEX
  8
BottomCopper
 42
1.000000
 10
475.849950
 20
360.146600
  0
VERTEX
  8
BottomCopper
 42
1.000000
 10
476.675450
 20
360.146600
  0
SEQEND
  0
POLYLINE
  8
BottomCopper
 66
1
 10
0.000000
 20
0.000000
 30
0.000000
 40
0.825500
 41
0.825500
 70
1
  0
VERTEX
  8
BottomCopper
 42
1.000000
 10
473.309950
 20
360.146600
  0
VERTEX
  8
BottomCopper
 42
1.000000
 10
474.135450
 20
360.146600
  0
SEQEND
  0
POLYLINE
  8
BottomCopper
 66
1
 10
0.000000
 20
0.000000
 30
0.000000
 40
0.825500
 41
0.825500
 70
1
  0
VERTEX
  8
BottomCopper
 42
1.000000
 10
480.929950
 20
360.146600
  0
VERTEX
  8
BottomCopper
 42
1.000000
 10
481.755450
 20
360.146600
  0
SEQEND
  0
POLYLINE
  8
BottomCopper
 66
1
 10
0.000000
 20
0.000000
 30
0.000000
 40
0.825500
 41
0.825500
 70
1
  0
VERTEX
  8
BottomCopper
 42
1.000000
 10
466.959950
 20
339.826600
  0
VERTEX
  8
BottomCopper
 42
1.000000
 10
467.785450
 20
339.826600
  0
SEQEND
  0
POLYLINE
  8
BottomCopper
 66
1
 10
0.000000
 20
0.000000
 30
0.000000
 40
0.825500
 41
0.825500
 70
1
  0
VERTEX
  8
BottomCopper
 42
1.000000
 10
466.959950
 20
347.446600
  0
VERTEX
  8
BottomCopper
 42
1.000000
 10
467.785450
 20
347.446600
  0
SEQEND
  0
POLYLINE
  8
BottomCopper
 66
1
 10
0.000000
 20
0.000000
 30
0.000000
 40
0.825500
 41
0.825500
 70
1
  0
VERTEX
  8
BottomCopper
 42
1.000000
 10
466.959950
 20
342.366600
  0
VERTEX
  8
BottomCopper
 42
1.000000
 10
467.785450
 20
342.366600
  0
SEQEND
  0
POLYLINE
  8
BottomCopper
 66
1
 10
0.000000
 20
0.000000
 30
0.000000
 40
0.825500
 41
0.825500
 70
1
  0
VERTEX
  8
BottomCopper
 42
1.000000
 10
477.119950
 20
344.906600
  0
VERTEX
  8
BottomCopper
 42
1.000000
 10
477.945450
 20
344.906600
  0
SEQEND
  0
POLYLINE
  8
BottomCopper
 66
1
 10
0.000000
 20
0.000000
 30
0.000000
 40
0.825500
 41
0.825500
 70
1
  0
VERTEX
  8
BottomCopper
 42
1.000000
 10
477.119950
 20
347.446600
  0
VERTEX
  8
BottomCopper
 42
1.000000
 10
477.945450
 20
347.446600
  0
SEQEND
  0
POLYLINE
  8
BottomCopper
 66
1
 10
0.000000
 20
0.000000
 30
0.000000
 40
0.825500
 41
0.825500
 70
1
  0
VERTEX
  8
BottomCopper
 42
1.000000
 10
477.119950
 20
339.826600
  0
VERTEX
  8
BottomCopper
 42
1.000000
 10
477.945450
 20
339.826600
  0
SEQEND
  0
POLYLINE
  8
BottomCopper
 66
1
 10
0.000000
 20
0.000000
 30
0.000000
 40
0.952500
 41
0.952500
 70
1
  0
VERTEX
  8
BottomCopper
 42
1.000000
 10
341.928450
 20
343.585800
  0
VERTEX
  8
BottomCopper
 42
1.000000
 10
342.880950
 20
343.585800
  0
SEQEND
  0
POLYLINE
  8
BottomCopper
 66
1
 10
0.000000
 20
0.000000
 30
0.000000
 40
0.952500
 41
0.952500
 70
1
  0
VERTEX
  8
BottomCopper
 42
1.000000
 10
346.932250
 20
343.585800
  0
VERTEX
  8
BottomCopper
 42
1.000000
 10
347.884750
 20
343.585800
  0
SEQEND
  0
POLYLINE
  8
BottomCopper
 66
1
 10
0.000000
 20
0.000000
 30
0.000000
 40
0.952500
 41
0.952500
 70
1
  0
VERTEX
  8
BottomCopper
 42
1.000000
 10
341.928450
 20
358.089200
  0
VERTEX
  8
BottomCopper
 42
1.000000
 10
342.880950
 20
358.089200
  0
SEQEND
  0
POLYLINE
  8
BottomCopper
 66
1
 10
0.000000
 20
0.000000
 30
0.000000
 40
0.952500
 41
0.952500
 70
1
  0
VERTEX
  8
BottomCopper
 42
1.000000
 10
344.417650
 20
358.089200
  0
VERTEX
  8
BottomCopper
 42
1.000000
 10
345.370150
 20
358.089200
  0
SEQEND
  0
POLYLINE
  8
BottomCopper
 66
1
 10
0.000000
 20
0.000000
 30
0.000000
 40
0.952500
 41
0.952500
 70
1
  0
VERTEX
  8
BottomCopper
 42
1.000000
 10
346.932250
 20
358.089200
  0
VERTEX
  8
BottomCopper
 42
1.000000
 10
347.884750
 20
358.089200
  0
SEQEND
  0
POLYLINE
  8
BottomCopper
 66
1
 10
0.000000
 20
0.000000
 30
0.000000
 40
1.460500
 41
1.460500
 70
1
  0
VERTEX
  8
BottomCopper
 42
1.000000
 10
338.169250
 20
350.596200
  0
VERTEX
  8
BottomCopper
 42
1.000000
 10
339.629750
 20
350.596200
  0
SEQEND
  0
POLYLINE
  8
BottomCopper
 66
1
 10
0.000000
 20
0.000000
 30
0.000000
 40
1.460500
 41
1.460500
 70
1
  0
VERTEX
  8
BottomCopper
 42
1.000000
 10
350.183450
 20
350.596200
  0
VERTEX
  8
BottomCopper
 42
1.000000
 10
351.643950
 20
350.596200
  0
SEQEND
  0
POLYLINE
  8
BottomCopper
 66
1
 10
0.000000
 20
0.000000
 30
0.000000
 40
0.190500
 41
0.190500
 70
1
  0
VERTEX
  8
BottomCopper
 10
454.894950
 20
368.877850
  0
VERTEX
  8
BottomCopper
 10
454.894950
 20
369.449350
  0
VERTEX
  8
BottomCopper
 10
454.704450
 20
369.449350
  0
VERTEX
  8
BottomCopper
 10
454.704450
 20
368.877850
  0
SEQEND
  0
POLYLINE
  8
BottomCopper
 66
1
 10
0.000000
 20
0.000000
 30
0.000000
 40
0.190500
 41
0.190500
 70
1
  0
VERTEX
  8
BottomCopper
 10
454.894950
 20
367.379250
  0
VERTEX
  8
BottomCopper
 10
454.894950
 20
367.950750
  0
VERTEX
  8
BottomCopper
 10
454.704450
 20
367.950750
  0
VERTEX
  8
BottomCopper
 10
454.704450
 20
367.379250
  0
SEQEND
  0
POLYLINE
  8
BottomCopper
 66
1
 10
0.000000
 20
0.000000
 30
0.000000
 40
0.190500
 41
0.190500
 70
1
  0
VERTEX
  8
BottomCopper
 10
454.082150
 20
368.877850
  0
VERTEX
  8
BottomCopper
 10
454.082150
 20
369.449350
  0
VERTEX
  8
BottomCopper
 10
453.891650
 20
369.449350
  0
VERTEX
  8
BottomCopper
 10
453.891650
 20
368.877850
  0
SEQEND
  0
POLYLINE
  8
BottomCopper
 66
1
 10
0.000000
 20
0.000000
 30
0.000000
 40
0.190500
 41
0.190500
 70
1
  0
VERTEX
  8
BottomCopper
 10
454.082150
 20
367.379250
  0
VERTEX
  8
BottomCopper
 10
454.082150
 20
367.950750
  0
VERTEX
  8
BottomCopper
 10
453.891650
 20
367.950750
  0
VERTEX
  8
BottomCopper
 10
453.891650
 20
367.379250
  0
SEQEND
  0
POLYLINE
  8
BottomCopper
 66
1
 10
0.000000
 20
0.000000
 30
0.000000
 40
0.190500
 41
0.190500
 70
1
  0
VERTEX
  8
BottomCopper
 10
453.294750
 20
368.877850
  0
VERTEX
  8
BottomCopper
 10
453.294750
 20
369.449350
  0
VERTEX
  8
BottomCopper
 10
453.104250
 20
369.449350
  0
VERTEX
  8
BottomCopper
 10
453.104250
 20
368.877850
  0
SEQEND
  0
POLYLINE
  8
BottomCopper
 66
1
 10
0.000000
 20
0.000000
 30
0.000000
 40
0.190500
 41
0.190500
 70
1
  0
VERTEX
  8
BottomCopper
 10
453.294750
 20
367.379250
  0
VERTEX
  8
BottomCopper
 10
453.294750
 20
367.950750
  0
VERTEX
  8
BottomCopper
 10
453.104250
 20
367.950750
  0
VERTEX
  8
BottomCopper
 10
453.104250
 20
367.379250
  0
SEQEND
  0
POLYLINE
  8
BottomCopper
 66
1
 10
0.000000
 20
0.000000
 30
0.000000
 40
0.190500
 41
0.190500
 70
1
  0
VERTEX
  8
BottomCopper
 10
452.481950
 20
368.877850
  0
VERTEX
  8
BottomCopper
 10
452.481950
 20
369.449350
  0
VERTEX
  8
BottomCopper
 10
452.291450
 20
369.449350
  0
VERTEX
  8
BottomCopper
 10
452.291450
 20
368.877850
  0
SEQEND
  0
POLYLINE
  8
BottomCopper
 66
1
 10
0.000000
 20
0.000000
 30
0.000000
 40
0.190500
 41
0.190500
 70
1
  0
VERTEX
  8
BottomCopper
 10
452.481950
 20
367.379250
  0
VERTEX
  8
BottomCopper
 10
452.481950
 20
367.950750
  0
VERTEX
  8
BottomCopper
 10
452.291450
 20
367.950750
  0
VERTEX
  8
BottomCopper
 10
452.291450
 20
367.379250
  0
SEQEND
  0
POLYLINE
  8
BottomCopper
 66
1
 10
0.000000
 20
0.000000
 30
0.000000
 40
0.190500
 41
0.190500
 70
1
  0
VERTEX
  8
BottomCopper
 10
352.659950
 20
363.162850
  0
VERTEX
  8
BottomCopper
 10
352.659950
 20
363.734350
  0
VERTEX
  8
BottomCopper
 10
352.469450
 20
363.734350
  0
VERTEX
  8
BottomCopper
 10
352.469450
 20
363.162850
  0
SEQEND
  0
POLYLINE
  8
BottomCopper
 66
1
 10
0.000000
 20
0.000000
 30
0.000000
 40
0.190500
 41
0.190500
 70
1
  0
VERTEX
  8
BottomCopper
 10
352.659950
 20
361.664250
  0
VERTEX
  8
BottomCopper
 10
352.659950
 20
362.235750
  0
VERTEX
  8
BottomCopper
 10
352.469450
 20
362.235750
  0
VERTEX
  8
BottomCopper
 10
352.469450
 20
361.664250
  0
SEQEND
  0
POLYLINE
  8
BottomCopper
 66
1
 10
0.000000
 20
0.000000
 30
0.000000
 40
0.190500
 41
0.190500
 70
1
  0
VERTEX
  8
BottomCopper
 10
351.847150
 20
363.162850
  0
VERTEX
  8
BottomCopper
 10
351.847150
 20
363.734350
  0
VERTEX
  8
BottomCopper
 10
351.656650
 20
363.734350
  0
VERTEX
  8
BottomCopper
 10
351.656650
 20
363.162850
  0
SEQEND
  0
POLYLINE
  8
BottomCopper
 66
1
 10
0.000000
 20
0.000000
 30
0.000000
 40
0.190500
 41
0.190500
 70
1
  0
VERTEX
  8
BottomCopper
 10
351.847150
 20
361.664250
  0
VERTEX
  8
BottomCopper
 10
351.847150
 20
362.235750
  0
VERTEX
  8
BottomCopper
 10
351.656650
 20
362.235750
  0
VERTEX
  8
BottomCopper
 10
351.656650
 20
361.664250
  0
SEQEND
  0
POLYLINE
  8
BottomCopper
 66
1
 10
0.000000
 20
0.000000
 30
0.000000
 40
0.190500
 41
0.190500
 70
1
  0
VERTEX
  8
BottomCopper
 10
351.059750
 20
363.162850
  0
VERTEX
  8
BottomCopper
 10
351.059750
 20
363.734350
  0
VERTEX
  8
BottomCopper
 10
350.869250
 20
363.734350
  0
VERTEX
  8
BottomCopper
 10
350.869250
 20
363.162850
  0
SEQEND
  0
POLYLINE
  8
BottomCopper
 66
1
 10
0.000000
 20
0.000000
 30
0.000000
 40
0.190500
 41
0.190500
 70
1
  0
VERTEX
  8
BottomCopper
 10
351.059750
 20
361.664250
  0
VERTEX
  8
BottomCopper
 10
351.059750
 20
362.235750
  0
VERTEX
  8
BottomCopper
 10
350.869250
 20
362.235750
  0
VERTEX
  8
BottomCopper
 10
350.869250
 20
361.664250
  0
SEQEND
  0
POLYLINE
  8
BottomCopper
 66
1
 10
0.000000
 20
0.000000
 30
0.000000
 40
0.190500
 41
0.190500
 70
1
  0
VERTEX
  8
BottomCopper
 10
350.246950
 20
363.162850
  0
VERTEX
  8
BottomCopper
 10
350.246950
 20
363.734350
  0
VERTEX
  8
BottomCopper
 10
350.056450
 20
363.734350
  0
VERTEX
  8
BottomCopper
 10
350.056450
 20
363.162850
  0
SEQEND
  0
POLYLINE
  8
BottomCopper
 66
1
 10
0.000000
 20
0.000000
 30
0.000000
 40
0.190500
 41
0.190500
 70
1
  0
VERTEX
  8
BottomCopper
 10
350.246950
 20
361.664250
  0
VERTEX
  8
BottomCopper
 10
350.246950
 20
362.235750
  0
VERTEX
  8
BottomCopper
 10
350.056450
 20
362.235750
  0
VERTEX
  8
BottomCopper
 10
350.056450
 20
361.664250
  0
SEQEND
  0
POLYLINE
  8
BottomCopper
 66
1
 10
0.000000
 20
0.000000
 30
0.000000
 40
0.190500
 41
0.190500
 70
1
  0
VERTEX
  8
BottomCopper
 10
458.819250
 20
369.525550
  0
VERTEX
  8
BottomCopper
 10
458.819250
 20
369.716050
  0
VERTEX
  8
BottomCopper
 10
458.247750
 20
369.716050
  0
VERTEX
  8
BottomCopper
 10
458.247750
 20
369.525550
  0
SEQEND
  0
POLYLINE
  8
BottomCopper
 66
1
 10
0.000000
 20
0.000000
 30
0.000000
 40
0.190500
 41
0.190500
 70
1
  0
VERTEX
  8
BottomCopper
 10
460.317850
 20
369.525550
  0
VERTEX
  8
BottomCopper
 10
460.317850
 20
369.716050
  0
VERTEX
  8
BottomCopper
 10
459.746350
 20
369.716050
  0
VERTEX
  8
BottomCopper
 10
459.746350
 20
369.525550
  0
SEQEND
  0
POLYLINE
  8
BottomCopper
 66
1
 10
0.000000
 20
0.000000
 30
0.000000
 40
0.190500
 41
0.190500
 70
1
  0
VERTEX
  8
BottomCopper
 10
458.819250
 20
368.712750
  0
VERTEX
  8
BottomCopper
 10
458.819250
 20
368.903250
  0
VERTEX
  8
BottomCopper
 10
458.247750
 20
368.903250
  0
VERTEX
  8
BottomCopper
 10
458.247750
 20
368.712750
  0
SEQEND
  0
POLYLINE
  8
BottomCopper
 66
1
 10
0.000000
 20
0.000000
 30
0.000000
 40
0.190500
 41
0.190500
 70
1
  0
VERTEX
  8
BottomCopper
 10
460.317850
 20
368.712750
  0
VERTEX
  8
BottomCopper
 10
460.317850
 20
368.903250
  0
VERTEX
  8
BottomCopper
 10
459.746350
 20
368.903250
  0
VERTEX
  8
BottomCopper
 10
459.746350
 20
368.712750
  0
SEQEND
  0
POLYLINE
  8
BottomCopper
 66
1
 10
0.000000
 20
0.000000
 30
0.000000
 40
0.190500
 41
0.190500
 70
1
  0
VERTEX
  8
BottomCopper
 10
458.819250
 20
367.925350
  0
VERTEX
  8
BottomCopper
 10
458.819250
 20
368.115850
  0
VERTEX
  8
BottomCopper
 10
458.247750
 20
368.115850
  0
VERTEX
  8
BottomCopper
 10
458.247750
 20
367.925350
  0
SEQEND
  0
POLYLINE
  8
BottomCopper
 66
1
 10
0.000000
 20
0.000000
 30
0.000000
 40
0.190500
 41
0.190500
 70
1
  0
VERTEX
  8
BottomCopper
 10
460.317850
 20
367.925350
  0
VERTEX
  8
BottomCopper
 10
460.317850
 20
368.115850
  0
VERTEX
  8
BottomCopper
 10
459.746350
 20
368.115850
  0
VERTEX
  8
BottomCopper
 10
459.746350
 20
367.925350
  0
SEQEND
  0
POLYLINE
  8
BottomCopper
 66
1
 10
0.000000
 20
0.000000
 30
0.000000
 40
0.190500
 41
0.190500
 70
1
  0
VERTEX
  8
BottomCopper
 10
458.819250
 20
367.112550
  0
VERTEX
  8
BottomCopper
 10
458.819250
 20
367.303050
  0
VERTEX
  8
BottomCopper
 10
458.247750
 20
367.303050
  0
VERTEX
  8
BottomCopper
 10
458.247750
 20
367.112550
  0
SEQEND
  0
POLYLINE
  8
BottomCopper
 66
1
 10
0.000000
 20
0.000000
 30
0.000000
 40
0.190500
 41
0.190500
 70
1
  0
VERTEX
  8
BottomCopper
 10
460.317850
 20
367.112550
  0
VERTEX
  8
BottomCopper
 10
460.317850
 20
367.303050
  0
VERTEX
  8
BottomCopper
 10
459.746350
 20
367.303050
  0
VERTEX
  8
BottomCopper
 10
459.746350
 20
367.112550
  0
SEQEND
  0
POLYLINE
  8
BottomCopper
 66
1
 10
0.000000
 20
0.000000
 30
0.000000
 40
2.540000
 41
2.540000
 70
1
  0
VERTEX
  8
BottomCopper
 42
1.000000
 10
328.129900
 20
372.110000
  0
VERTEX
  8
BottomCopper
 42
1.000000
 10
330.669900
 20
372.110000
  0
SEQEND
  0
POLYLINE
  8
BottomCopper
 66
1
 10
0.000000
 20
0.000000
 30
0.000000
 40
2.540000
 41
2.540000
 70
1
  0
VERTEX
  8
BottomCopper
 42
1.000000
 10
328.129900
 20
339.090000
  0
VERTEX
  8
BottomCopper
 42
1.000000
 10
330.669900
 20
339.090000
  0
SEQEND
  0
POLYLINE
  8
BottomCopper
 66
1
 10
0.000000
 20
0.000000
 30
0.000000
 40
2.540000
 41
2.540000
 70
1
  0
VERTEX
  8
BottomCopper
 42
1.000000
 10
482.130100
 20
372.110000
  0
VERTEX
  8
BottomCopper
 42
1.000000
 10
484.670100
 20
372.110000
  0
SEQEND
  0
POLYLINE
  8
BottomCopper
 66
1
 10
0.000000
 20
0.000000
 30
0.000000
 40
2.540000
 41
2.540000
 70
1
  0
VERTEX
  8
BottomCopper
 42
1.000000
 10
482.130100
 20
339.090000
  0
VERTEX
  8
BottomCopper
 42
1.000000
 10
484.670100
 20
339.090000
  0
SEQEND
  0
POLYLINE
  8
ViaHoles
 66
1
 10
0.000000
 20
0.000000
 30
0.000000
 40
0.317500
 41
0.317500
 70
1
  0
VERTEX
  8
ViaHoles
 42
1.000000
 10
392.461750
 20
366.877600
  0
VERTEX
  8
ViaHoles
 42
1.000000
 10
392.779250
 20
366.877600
  0
SEQEND
  0
POLYLINE
  8
ViaHoles
 66
1
 10
0.000000
 20
0.000000
 30
0.000000
 40
0.317500
 41
0.317500
 70
1
  0
VERTEX
  8
ViaHoles
 42
1.000000
 10
392.461750
 20
372.821200
  0
VERTEX
  8
ViaHoles
 42
1.000000
 10
392.779250
 20
372.821200
  0
SEQEND
  0
POLYLINE
  8
ViaHoles
 66
1
 10
0.000000
 20
0.000000
 30
0.000000
 40
0.317500
 41
0.317500
 70
1
  0
VERTEX
  8
ViaHoles
 42
1.000000
 10
386.568950
 20
366.877600
  0
VERTEX
  8
ViaHoles
 42
1.000000
 10
386.886450
 20
366.877600
  0
SEQEND
  0
POLYLINE
  8
ViaHoles
 66
1
 10
0.000000
 20
0.000000
 30
0.000000
 40
0.317500
 41
0.317500
 70
1
  0
VERTEX
  8
ViaHoles
 42
1.000000
 10
407.320750
 20
354.203000
  0
VERTEX
  8
ViaHoles
 42
1.000000
 10
407.638250
 20
354.203000
  0
SEQEND
  0
POLYLINE
  8
ViaHoles
 66
1
 10
0.000000
 20
0.000000
 30
0.000000
 40
0.317500
 41
0.317500
 70
1
  0
VERTEX
  8
ViaHoles
 42
1.000000
 10
398.176750
 20
352.221800
  0
VERTEX
  8
ViaHoles
 42
1.000000
 10
398.494250
 20
352.221800
  0
SEQEND
  0
POLYLINE
  8
ViaHoles
 66
1
 10
0.000000
 20
0.000000
 30
0.000000
 40
0.317500
 41
0.317500
 70
1
  0
VERTEX
  8
ViaHoles
 42
1.000000
 10
374.046750
 20
346.862400
  0
VERTEX
  8
ViaHoles
 42
1.000000
 10
374.364250
 20
346.862400
  0
SEQEND
  0
POLYLINE
  8
ViaHoles
 66
1
 10
0.000000
 20
0.000000
 30
0.000000
 40
0.317500
 41
0.317500
 70
1
  0
VERTEX
  8
ViaHoles
 42
1.000000
 10
436.276750
 20
355.828600
  0
VERTEX
  8
ViaHoles
 42
1.000000
 10
436.594250
 20
355.828600
  0
SEQEND
  0
POLYLINE
  8
ViaHoles
 66
1
 10
0.000000
 20
0.000000
 30
0.000000
 40
0.317500
 41
0.317500
 70
1
  0
VERTEX
  8
ViaHoles
 42
1.000000
 10
405.034750
 20
351.866200
  0
VERTEX
  8
ViaHoles
 42
1.000000
 10
405.352250
 20
351.866200
  0
SEQEND
  0
POLYLINE
  8
ViaHoles
 66
1
 10
0.000000
 20
0.000000
 30
0.000000
 40
0.317500
 41
0.317500
 70
1
  0
VERTEX
  8
ViaHoles
 42
1.000000
 10
454.437750
 20
361.772200
  0
VERTEX
  8
ViaHoles
 42
1.000000
 10
454.755250
 20
361.772200
  0
SEQEND
  0
POLYLINE
  8
ViaHoles
 66
1
 10
0.000000
 20
0.000000
 30
0.000000
 40
0.317500
 41
0.317500
 70
1
  0
VERTEX
  8
ViaHoles
 42
1.000000
 10
403.510750
 20
355.955600
  0
VERTEX
  8
ViaHoles
 42
1.000000
 10
403.828250
 20
355.955600
  0
SEQEND
  0
POLYLINE
  8
ViaHoles
 66
1
 10
0.000000
 20
0.000000
 30
0.000000
 40
0.317500
 41
0.317500
 70
1
  0
VERTEX
  8
ViaHoles
 42
1.000000
 10
430.815750
 20
349.961200
  0
VERTEX
  8
ViaHoles
 42
1.000000
 10
431.133250
 20
349.961200
  0
SEQEND
  0
POLYLINE
  8
ViaHoles
 66
1
 10
0.000000
 20
0.000000
 30
0.000000
 40
0.317500
 41
0.317500
 70
1
  0
VERTEX
  8
ViaHoles
 42
1.000000
 10
464.089750
 20
336.397600
  0
VERTEX
  8
ViaHoles
 42
1.000000
 10
464.407250
 20
336.397600
  0
SEQEND
  0
POLYLINE
  8
ViaHoles
 66
1
 10
0.000000
 20
0.000000
 30
0.000000
 40
0.317500
 41
0.317500
 70
1
  0
VERTEX
  8
ViaHoles
 42
1.000000
 10
392.690350
 20
348.589600
  0
VERTEX
  8
ViaHoles
 42
1.000000
 10
393.007850
 20
348.589600
  0
SEQEND
  0
POLYLINE
  8
ViaHoles
 66
1
 10
0.000000
 20
0.000000
 30
0.000000
 40
0.317500
 41
0.317500
 70
1
  0
VERTEX
  8
ViaHoles
 42
1.000000
 10
362.743750
 20
350.850200
  0
VERTEX
  8
ViaHoles
 42
1.000000
 10
363.061250
 20
350.850200
  0
SEQEND
  0
POLYLINE
  8
ViaHoles
 66
1
 10
0.000000
 20
0.000000
 30
0.000000
 40
0.317500
 41
0.317500
 70
1
  0
VERTEX
  8
ViaHoles
 42
1.000000
 10
448.595750
 20
335.508600
  0
VERTEX
  8
ViaHoles
 42
1.000000
 10
448.913250
 20
335.508600
  0
SEQEND
  0
POLYLINE
  8
ViaHoles
 66
1
 10
0.000000
 20
0.000000
 30
0.000000
 40
0.317500
 41
0.317500
 70
1
  0
VERTEX
  8
ViaHoles
 42
1.000000
 10
396.398750
 20
343.001600
  0
VERTEX
  8
ViaHoles
 42
1.000000
 10
396.716250
 20
343.001600
  0
SEQEND
  0
POLYLINE
  8
ViaHoles
 66
1
 10
0.000000
 20
0.000000
 30
0.000000
 40
0.317500
 41
0.317500
 70
1
  0
VERTEX
  8
ViaHoles
 42
1.000000
 10
427.742350
 20
347.827600
  0
VERTEX
  8
ViaHoles
 42
1.000000
 10
428.059850
 20
347.827600
  0
SEQEND
  0
POLYLINE
  8
ViaHoles
 66
1
 10
0.000000
 20
0.000000
 30
0.000000
 40
0.317500
 41
0.317500
 70
1
  0
VERTEX
  8
ViaHoles
 42
1.000000
 10
415.702750
 20
355.447600
  0
VERTEX
  8
ViaHoles
 42
1.000000
 10
416.020250
 20
355.447600
  0
SEQEND
  0
POLYLINE
  8
ViaHoles
 66
1
 10
0.000000
 20
0.000000
 30
0.000000
 40
0.317500
 41
0.317500
 70
1
  0
VERTEX
  8
ViaHoles
 42
1.000000
 10
407.320750
 20
355.955600
  0
VERTEX
  8
ViaHoles
 42
1.000000
 10
407.638250
 20
355.955600
  0
SEQEND
  0
POLYLINE
  8
ViaHoles
 66
1
 10
0.000000
 20
0.000000
 30
0.000000
 40
0.317500
 41
0.317500
 70
1
  0
VERTEX
  8
ViaHoles
 42
1.000000
 10
445.420750
 20
364.845600
  0
VERTEX
  8
ViaHoles
 42
1.000000
 10
445.738250
 20
364.845600
  0
SEQEND
  0
POLYLINE
  8
ViaHoles
 66
1
 10
0.000000
 20
0.000000
 30
0.000000
 40
0.317500
 41
0.317500
 70
1
  0
VERTEX
  8
ViaHoles
 42
1.000000
 10
415.702750
 20
359.892600
  0
VERTEX
  8
ViaHoles
 42
1.000000
 10
416.020250
 20
359.892600
  0
SEQEND
  0
POLYLINE
  8
ViaHoles
 66
1
 10
0.000000
 20
0.000000
 30
0.000000
 40
0.317500
 41
0.317500
 70
1
  0
VERTEX
  8
ViaHoles
 42
1.000000
 10
330.714350
 20
347.573600
  0
VERTEX
  8
ViaHoles
 42
1.000000
 10
331.031850
 20
347.573600
  0
SEQEND
  0
POLYLINE
  8
ViaHoles
 66
1
 10
0.000000
 20
0.000000
 30
0.000000
 40
0.317500
 41
0.317500
 70
1
  0
VERTEX
  8
ViaHoles
 42
1.000000
 10
358.552750
 20
351.637600
  0
VERTEX
  8
ViaHoles
 42
1.000000
 10
358.870250
 20
351.637600
  0
SEQEND
  0
POLYLINE
  8
ViaHoles
 66
1
 10
0.000000
 20
0.000000
 30
0.000000
 40
0.317500
 41
0.317500
 70
1
  0
VERTEX
  8
ViaHoles
 42
1.000000
 10
413.797750
 20
349.097600
  0
VERTEX
  8
ViaHoles
 42
1.000000
 10
414.115250
 20
349.097600
  0
SEQEND
  0
POLYLINE
  8
ViaHoles
 66
1
 10
0.000000
 20
0.000000
 30
0.000000
 40
0.317500
 41
0.317500
 70
1
  0
VERTEX
  8
ViaHoles
 42
1.000000
 10
381.412750
 20
349.732600
  0
VERTEX
  8
ViaHoles
 42
1.000000
 10
381.730250
 20
349.732600
  0
SEQEND
  0
POLYLINE
  8
ViaHoles
 66
1
 10
0.000000
 20
0.000000
 30
0.000000
 40
0.317500
 41
0.317500
 70
1
  0
VERTEX
  8
ViaHoles
 42
1.000000
 10
418.242750
 20
364.210600
  0
VERTEX
  8
ViaHoles
 42
1.000000
 10
418.560250
 20
364.210600
  0
SEQEND
  0
POLYLINE
  8
ViaHoles
 66
1
 10
0.000000
 20
0.000000
 30
0.000000
 40
0.317500
 41
0.317500
 70
1
  0
VERTEX
  8
ViaHoles
 42
1.000000
 10
369.347750
 20
366.115600
  0
VERTEX
  8
ViaHoles
 42
1.000000
 10
369.665250
 20
366.115600
  0
SEQEND
  0
POLYLINE
  8
ViaHoles
 66
1
 10
0.000000
 20
0.000000
 30
0.000000
 40
0.317500
 41
0.317500
 70
1
  0
VERTEX
  8
ViaHoles
 42
1.000000
 10
380.650750
 20
342.112600
  0
VERTEX
  8
ViaHoles
 42
1.000000
 10
380.968250
 20
342.112600
  0
SEQEND
  0
POLYLINE
  8
ViaHoles
 66
1
 10
0.000000
 20
0.000000
 30
0.000000
 40
0.317500
 41
0.317500
 70
1
  0
VERTEX
  8
ViaHoles
 42
1.000000
 10
427.767750
 20
361.162600
  0
VERTEX
  8
ViaHoles
 42
1.000000
 10
428.085250
 20
361.162600
  0
SEQEND
  0
POLYLINE
  8
ViaHoles
 66
1
 10
0.000000
 20
0.000000
 30
0.000000
 40
0.317500
 41
0.317500
 70
1
  0
VERTEX
  8
ViaHoles
 42
1.000000
 10
385.730750
 20
342.112600
  0
VERTEX
  8
ViaHoles
 42
1.000000
 10
386.048250
 20
342.112600
  0
SEQEND
  0
POLYLINE
  8
ViaHoles
 66
1
 10
0.000000
 20
0.000000
 30
0.000000
 40
0.317500
 41
0.317500
 70
1
  0
VERTEX
  8
ViaHoles
 42
1.000000
 10
387.762750
 20
342.112600
  0
VERTEX
  8
ViaHoles
 42
1.000000
 10
388.080250
 20
342.112600
  0
SEQEND
  0
POLYLINE
  8
ViaHoles
 66
1
 10
0.000000
 20
0.000000
 30
0.000000
 40
0.317500
 41
0.317500
 70
1
  0
VERTEX
  8
ViaHoles
 42
1.000000
 10
369.855750
 20
355.320600
  0
VERTEX
  8
ViaHoles
 42
1.000000
 10
370.173250
 20
355.320600
  0
SEQEND
  0
POLYLINE
  8
ViaHoles
 66
1
 10
0.000000
 20
0.000000
 30
0.000000
 40
0.317500
 41
0.317500
 70
1
  0
VERTEX
  8
ViaHoles
 42
1.000000
 10
340.493350
 20
368.579400
  0
VERTEX
  8
ViaHoles
 42
1.000000
 10
340.810850
 20
368.579400
  0
SEQEND
  0
POLYLINE
  8
ViaHoles
 66
1
 10
0.000000
 20
0.000000
 30
0.000000
 40
0.317500
 41
0.317500
 70
1
  0
VERTEX
  8
ViaHoles
 42
1.000000
 10
411.003750
 20
355.828600
  0
VERTEX
  8
ViaHoles
 42
1.000000
 10
411.321250
 20
355.828600
  0
SEQEND
  0
POLYLINE
  8
ViaHoles
 66
1
 10
0.000000
 20
0.000000
 30
0.000000
 40
0.317500
 41
0.317500
 70
1
  0
VERTEX
  8
ViaHoles
 42
1.000000
 10
411.003750
 20
357.835200
  0
VERTEX
  8
ViaHoles
 42
1.000000
 10
411.321250
 20
357.835200
  0
SEQEND
  0
POLYLINE
  8
ViaHoles
 66
1
 10
0.000000
 20
0.000000
 30
0.000000
 40
0.317500
 41
0.317500
 70
1
  0
VERTEX
  8
ViaHoles
 42
1.000000
 10
363.759750
 20
355.193600
  0
VERTEX
  8
ViaHoles
 42
1.000000
 10
364.077250
 20
355.193600
  0
SEQEND
  0
POLYLINE
  8
ViaHoles
 66
1
 10
0.000000
 20
0.000000
 30
0.000000
 40
0.317500
 41
0.317500
 70
1
  0
VERTEX
  8
ViaHoles
 42
1.000000
 10
445.293750
 20
347.446600
  0
VERTEX
  8
ViaHoles
 42
1.000000
 10
445.611250
 20
347.446600
  0
SEQEND
  0
POLYLINE
  8
ViaHoles
 66
1
 10
0.000000
 20
0.000000
 30
0.000000
 40
0.317500
 41
0.317500
 70
1
  0
VERTEX
  8
ViaHoles
 42
1.000000
 10
451.643750
 20
344.144600
  0
VERTEX
  8
ViaHoles
 42
1.000000
 10
451.961250
 20
344.144600
  0
SEQEND
  0
POLYLINE
  8
ViaHoles
 66
1
 10
0.000000
 20
0.000000
 30
0.000000
 40
0.317500
 41
0.317500
 70
1
  0
VERTEX
  8
ViaHoles
 42
1.000000
 10
363.759750
 20
356.463600
  0
VERTEX
  8
ViaHoles
 42
1.000000
 10
364.077250
 20
356.463600
  0
SEQEND
  0
POLYLINE
  8
ViaHoles
 66
1
 10
0.000000
 20
0.000000
 30
0.000000
 40
0.317500
 41
0.317500
 70
1
  0
VERTEX
  8
ViaHoles
 42
1.000000
 10
409.733750
 20
355.828600
  0
VERTEX
  8
ViaHoles
 42
1.000000
 10
410.051250
 20
355.828600
  0
SEQEND
  0
POLYLINE
  8
ViaHoles
 66
1
 10
0.000000
 20
0.000000
 30
0.000000
 40
0.317500
 41
0.317500
 70
1
  0
VERTEX
  8
ViaHoles
 42
1.000000
 10
358.349550
 20
357.733600
  0
VERTEX
  8
ViaHoles
 42
1.000000
 10
358.667050
 20
357.733600
  0
SEQEND
  0
POLYLINE
  8
ViaHoles
 66
1
 10
0.000000
 20
0.000000
 30
0.000000
 40
0.317500
 41
0.317500
 70
1
  0
VERTEX
  8
ViaHoles
 42
1.000000
 10
329.317350
 20
355.650800
  0
VERTEX
  8
ViaHoles
 42
1.000000
 10
329.634850
 20
355.650800
  0
SEQEND
  0
POLYLINE
  8
ViaHoles
 66
1
 10
0.000000
 20
0.000000
 30
0.000000
 40
0.317500
 41
0.317500
 70
1
  0
VERTEX
  8
ViaHoles
 42
1.000000
 10
329.317350
 20
360.730800
  0
VERTEX
  8
ViaHoles
 42
1.000000
 10
329.634850
 20
360.730800
  0
SEQEND
  0
POLYLINE
  8
ViaHoles
 66
1
 10
0.000000
 20
0.000000
 30
0.000000
 40
0.317500
 41
0.317500
 70
1
  0
VERTEX
  8
ViaHoles
 42
1.000000
 10
426.980350
 20
353.212400
  0
VERTEX
  8
ViaHoles
 42
1.000000
 10
427.297850
 20
353.212400
  0
SEQEND
  0
POLYLINE
  8
ViaHoles
 66
1
 10
0.000000
 20
0.000000
 30
0.000000
 40
0.317500
 41
0.317500
 70
1
  0
VERTEX
  8
ViaHoles
 42
1.000000
 10
426.751750
 20
343.636600
  0
VERTEX
  8
ViaHoles
 42
1.000000
 10
427.069250
 20
343.636600
  0
SEQEND
  0
POLYLINE
  8
ViaHoles
 66
1
 10
0.000000
 20
0.000000
 30
0.000000
 40
0.317500
 41
0.317500
 70
1
  0
VERTEX
  8
ViaHoles
 42
1.000000
 10
435.641750
 20
371.957600
  0
VERTEX
  8
ViaHoles
 42
1.000000
 10
435.959250
 20
371.957600
  0
SEQEND
  0
POLYLINE
  8
ViaHoles
 66
1
 10
0.000000
 20
0.000000
 30
0.000000
 40
0.317500
 41
0.317500
 70
1
  0
VERTEX
  8
ViaHoles
 42
1.000000
 10
456.342750
 20
355.066600
  0
VERTEX
  8
ViaHoles
 42
1.000000
 10
456.660250
 20
355.066600
  0
SEQEND
  0
POLYLINE
  8
ViaHoles
 66
1
 10
0.000000
 20
0.000000
 30
0.000000
 40
0.317500
 41
0.317500
 70
1
  0
VERTEX
  8
ViaHoles
 42
1.000000
 10
426.548550
 20
362.991400
  0
VERTEX
  8
ViaHoles
 42
1.000000
 10
426.866050
 20
362.991400
  0
SEQEND
  0
POLYLINE
  8
ViaHoles
 66
1
 10
0.000000
 20
0.000000
 30
0.000000
 40
0.317500
 41
0.317500
 70
1
  0
VERTEX
  8
ViaHoles
 42
1.000000
 10
426.827950
 20
354.761800
  0
VERTEX
  8
ViaHoles
 42
1.000000
 10
427.145450
 20
354.761800
  0
SEQEND
  0
POLYLINE
  8
ViaHoles
 66
1
 10
0.000000
 20
0.000000
 30
0.000000
 40
0.317500
 41
0.317500
 70
1
  0
VERTEX
  8
ViaHoles
 42
1.000000
 10
434.066950
 20
341.477600
  0
VERTEX
  8
ViaHoles
 42
1.000000
 10
434.384450
 20
341.477600
  0
SEQEND
  0
POLYLINE
  8
ViaHoles
 66
1
 10
0.000000
 20
0.000000
 30
0.000000
 40
0.317500
 41
0.317500
 70
1
  0
VERTEX
  8
ViaHoles
 42
1.000000
 10
395.890750
 20
340.080600
  0
VERTEX
  8
ViaHoles
 42
1.000000
 10
396.208250
 20
340.080600
  0
SEQEND
  0
POLYLINE
  8
ViaHoles
 66
1
 10
0.000000
 20
0.000000
 30
0.000000
 40
0.317500
 41
0.317500
 70
1
  0
VERTEX
  8
ViaHoles
 42
1.000000
 10
408.590750
 20
344.881200
  0
VERTEX
  8
ViaHoles
 42
1.000000
 10
408.908250
 20
344.881200
  0
SEQEND
  0
POLYLINE
  8
ViaHoles
 66
1
 10
0.000000
 20
0.000000
 30
0.000000
 40
0.317500
 41
0.317500
 70
1
  0
VERTEX
  8
ViaHoles
 42
1.000000
 10
403.104350
 20
340.995000
  0
VERTEX
  8
ViaHoles
 42
1.000000
 10
403.421850
 20
340.995000
  0
SEQEND
  0
POLYLINE
  8
ViaHoles
 66
1
 10
0.000000
 20
0.000000
 30
0.000000
 40
0.317500
 41
0.317500
 70
1
  0
VERTEX
  8
ViaHoles
 42
1.000000
 10
416.642550
 20
348.691200
  0
VERTEX
  8
ViaHoles
 42
1.000000
 10
416.960050
 20
348.691200
  0
SEQEND
  0
POLYLINE
  8
ViaHoles
 66
1
 10
0.000000
 20
0.000000
 30
0.000000
 40
0.317500
 41
0.317500
 70
1
  0
VERTEX
  8
ViaHoles
 42
1.000000
 10
415.093150
 20
342.468200
  0
VERTEX
  8
ViaHoles
 42
1.000000
 10
415.410650
 20
342.468200
  0
SEQEND
  0
POLYLINE
  8
ViaHoles
 66
1
 10
0.000000
 20
0.000000
 30
0.000000
 40
0.317500
 41
0.317500
 70
1
  0
VERTEX
  8
ViaHoles
 42
1.000000
 10
402.951950
 20
343.179400
  0
VERTEX
  8
ViaHoles
 42
1.000000
 10
403.269450
 20
343.179400
  0
SEQEND
  0
POLYLINE
  8
ViaHoles
 66
1
 10
0.000000
 20
0.000000
 30
0.000000
 40
0.317500
 41
0.317500
 70
1
  0
VERTEX
  8
ViaHoles
 42
1.000000
 10
399.751550
 20
343.179400
  0
VERTEX
  8
ViaHoles
 42
1.000000
 10
400.069050
 20
343.179400
  0
SEQEND
  0
POLYLINE
  8
ViaHoles
 66
1
 10
0.000000
 20
0.000000
 30
0.000000
 40
0.317500
 41
0.317500
 70
1
  0
VERTEX
  8
ViaHoles
 42
1.000000
 10
392.207750
 20
339.877400
  0
VERTEX
  8
ViaHoles
 42
1.000000
 10
392.525250
 20
339.877400
  0
SEQEND
  0
POLYLINE
  8
ViaHoles
 66
1
 10
0.000000
 20
0.000000
 30
0.000000
 40
0.317500
 41
0.317500
 70
1
  0
VERTEX
  8
ViaHoles
 42
1.000000
 10
384.460750
 20
338.759800
  0
VERTEX
  8
ViaHoles
 42
1.000000
 10
384.778250
 20
338.759800
  0
SEQEND
  0
POLYLINE
  8
ViaHoles
 66
1
 10
0.000000
 20
0.000000
 30
0.000000
 40
0.317500
 41
0.317500
 70
1
  0
VERTEX
  8
ViaHoles
 42
1.000000
 10
405.390350
 20
341.757000
  0
VERTEX
  8
ViaHoles
 42
1.000000
 10
405.707850
 20
341.757000
  0
SEQEND
  0
POLYLINE
  8
ViaHoles
 66
1
 10
0.000000
 20
0.000000
 30
0.000000
 40
0.317500
 41
0.317500
 70
1
  0
VERTEX
  8
ViaHoles
 42
1.000000
 10
425.913550
 20
353.212400
  0
VERTEX
  8
ViaHoles
 42
1.000000
 10
426.231050
 20
353.212400
  0
SEQEND
  0
POLYLINE
  8
ViaHoles
 66
1
 10
0.000000
 20
0.000000
 30
0.000000
 40
0.317500
 41
0.317500
 70
1
  0
VERTEX
  8
ViaHoles
 42
1.000000
 10
431.577750
 20
356.031800
  0
VERTEX
  8
ViaHoles
 42
1.000000
 10
431.895250
 20
356.031800
  0
SEQEND
  0
POLYLINE
  8
ViaHoles
 66
1
 10
0.000000
 20
0.000000
 30
0.000000
 40
0.317500
 41
0.317500
 70
1
  0
VERTEX
  8
ViaHoles
 42
1.000000
 10
423.246550
 20
352.323400
  0
VERTEX
  8
ViaHoles
 42
1.000000
 10
423.564050
 20
352.323400
  0
SEQEND
  0
POLYLINE
  8
ViaHoles
 66
1
 10
0.000000
 20
0.000000
 30
0.000000
 40
0.317500
 41
0.317500
 70
1
  0
VERTEX
  8
ViaHoles
 42
1.000000
 10
384.968750
 20
350.951800
  0
VERTEX
  8
ViaHoles
 42
1.000000
 10
385.286250
 20
350.951800
  0
SEQEND
  0
POLYLINE
  8
ViaHoles
 66
1
 10
0.000000
 20
0.000000
 30
0.000000
 40
0.317500
 41
0.317500
 70
1
  0
VERTEX
  8
ViaHoles
 42
1.000000
 10
375.367550
 20
341.706200
  0
VERTEX
  8
ViaHoles
 42
1.000000
 10
375.685050
 20
341.706200
  0
SEQEND
  0
POLYLINE
  8
ViaHoles
 66
1
 10
0.000000
 20
0.000000
 30
0.000000
 40
0.317500
 41
0.317500
 70
1
  0
VERTEX
  8
ViaHoles
 42
1.000000
 10
431.018950
 20
351.586800
  0
VERTEX
  8
ViaHoles
 42
1.000000
 10
431.336450
 20
351.586800
  0
SEQEND
  0
POLYLINE
  8
ViaHoles
 66
1
 10
0.000000
 20
0.000000
 30
0.000000
 40
0.317500
 41
0.317500
 70
1
  0
VERTEX
  8
ViaHoles
 42
1.000000
 10
399.751550
 20
358.876600
  0
VERTEX
  8
ViaHoles
 42
1.000000
 10
400.069050
 20
358.876600
  0
SEQEND
  0
POLYLINE
  8
ViaHoles
 66
1
 10
0.000000
 20
0.000000
 30
0.000000
 40
0.317500
 41
0.317500
 70
1
  0
VERTEX
  8
ViaHoles
 42
1.000000
 10
408.463750
 20
361.315000
  0
VERTEX
  8
ViaHoles
 42
1.000000
 10
408.781250
 20
361.315000
  0
SEQEND
  0
POLYLINE
  8
ViaHoles
 66
1
 10
0.000000
 20
0.000000
 30
0.000000
 40
0.317500
 41
0.317500
 70
1
  0
VERTEX
  8
ViaHoles
 42
1.000000
 10
430.561750
 20
371.500400
  0
VERTEX
  8
ViaHoles
 42
1.000000
 10
430.879250
 20
371.500400
  0
SEQEND
  0
POLYLINE
  8
ViaHoles
 66
1
 10
0.000000
 20
0.000000
 30
0.000000
 40
0.317500
 41
0.317500
 70
1
  0
VERTEX
  8
ViaHoles
 42
1.000000
 10
422.890950
 20
364.109000
  0
VERTEX
  8
ViaHoles
 42
1.000000
 10
423.208450
 20
364.109000
  0
SEQEND
  0
POLYLINE
  8
ViaHoles
 66
1
 10
0.000000
 20
0.000000
 30
0.000000
 40
0.317500
 41
0.317500
 70
1
  0
VERTEX
  8
ViaHoles
 42
1.000000
 10
445.065150
 20
374.853200
  0
VERTEX
  8
ViaHoles
 42
1.000000
 10
445.382650
 20
374.853200
  0
SEQEND
  0
POLYLINE
  8
ViaHoles
 66
1
 10
0.000000
 20
0.000000
 30
0.000000
 40
0.317500
 41
0.317500
 70
1
  0
VERTEX
  8
ViaHoles
 42
1.000000
 10
415.601150
 20
340.842600
  0
VERTEX
  8
ViaHoles
 42
1.000000
 10
415.918650
 20
340.842600
  0
SEQEND
  0
POLYLINE
  8
ViaHoles
 66
1
 10
0.000000
 20
0.000000
 30
0.000000
 40
0.317500
 41
0.317500
 70
1
  0
VERTEX
  8
ViaHoles
 42
1.000000
 10
413.975550
 20
343.636600
  0
VERTEX
  8
ViaHoles
 42
1.000000
 10
414.293050
 20
343.636600
  0
SEQEND
  0
POLYLINE
  8
ViaHoles
 66
1
 10
0.000000
 20
0.000000
 30
0.000000
 40
0.317500
 41
0.317500
 70
1
  0
VERTEX
  8
ViaHoles
 42
1.000000
 10
418.369750
 20
338.810600
  0
VERTEX
  8
ViaHoles
 42
1.000000
 10
418.687250
 20
338.810600
  0
SEQEND
  0
POLYLINE
  8
ViaHoles
 66
1
 10
0.000000
 20
0.000000
 30
0.000000
 40
0.317500
 41
0.317500
 70
1
  0
VERTEX
  8
ViaHoles
 42
1.000000
 10
419.842950
 20
343.560400
  0
VERTEX
  8
ViaHoles
 42
1.000000
 10
420.160450
 20
343.560400
  0
SEQEND
  0
POLYLINE
  8
ViaHoles
 66
1
 10
0.000000
 20
0.000000
 30
0.000000
 40
0.317500
 41
0.317500
 70
1
  0
VERTEX
  8
ViaHoles
 42
1.000000
 10
365.182150
 20
369.112800
  0
VERTEX
  8
ViaHoles
 42
1.000000
 10
365.499650
 20
369.112800
  0
SEQEND
  0
POLYLINE
  8
ViaHoles
 66
1
 10
0.000000
 20
0.000000
 30
0.000000
 40
0.317500
 41
0.317500
 70
1
  0
VERTEX
  8
ViaHoles
 42
1.000000
 10
347.783150
 20
369.112800
  0
VERTEX
  8
ViaHoles
 42
1.000000
 10
348.100650
 20
369.112800
  0
SEQEND
  0
POLYLINE
  8
ViaHoles
 66
1
 10
0.000000
 20
0.000000
 30
0.000000
 40
0.317500
 41
0.317500
 70
1
  0
VERTEX
  8
ViaHoles
 42
1.000000
 10
417.226750
 20
371.652800
  0
VERTEX
  8
ViaHoles
 42
1.000000
 10
417.544250
 20
371.652800
  0
SEQEND
  0
POLYLINE
  8
ViaHoles
 66
1
 10
0.000000
 20
0.000000
 30
0.000000
 40
0.317500
 41
0.317500
 70
1
  0
VERTEX
  8
ViaHoles
 42
1.000000
 10
364.343950
 20
373.684800
  0
VERTEX
  8
ViaHoles
 42
1.000000
 10
364.661450
 20
373.684800
  0
SEQEND
  0
POLYLINE
  8
ViaHoles
 66
1
 10
0.000000
 20
0.000000
 30
0.000000
 40
0.317500
 41
0.317500
 70
1
  0
VERTEX
  8
ViaHoles
 42
1.000000
 10
329.114150
 20
359.308400
  0
VERTEX
  8
ViaHoles
 42
1.000000
 10
329.431650
 20
359.308400
  0
SEQEND
  0
POLYLINE
  8
ViaHoles
 66
1
 10
0.000000
 20
0.000000
 30
0.000000
 40
0.317500
 41
0.317500
 70
1
  0
VERTEX
  8
ViaHoles
 42
1.000000
 10
454.640950
 20
366.420400
  0
VERTEX
  8
ViaHoles
 42
1.000000
 10
454.958450
 20
366.420400
  0
SEQEND
  0
POLYLINE
  8
ViaHoles
 66
1
 10
0.000000
 20
0.000000
 30
0.000000
 40
0.317500
 41
0.317500
 70
1
  0
VERTEX
  8
ViaHoles
 42
1.000000
 10
459.289150
 20
362.686600
  0
VERTEX
  8
ViaHoles
 42
1.000000
 10
459.606650
 20
362.686600
  0
SEQEND
  0
POLYLINE
  8
ViaHoles
 66
1
 10
0.000000
 20
0.000000
 30
0.000000
 40
0.317500
 41
0.317500
 70
1
  0
VERTEX
  8
ViaHoles
 42
1.000000
 10
452.939150
 20
365.277400
  0
VERTEX
  8
ViaHoles
 42
1.000000
 10
453.256650
 20
365.277400
  0
SEQEND
  0
POLYLINE
  8
ViaHoles
 66
1
 10
0.000000
 20
0.000000
 30
0.000000
 40
0.317500
 41
0.317500
 70
1
  0
VERTEX
  8
ViaHoles
 42
1.000000
 10
452.939150
 20
351.028000
  0
VERTEX
  8
ViaHoles
 42
1.000000
 10
453.256650
 20
351.028000
  0
SEQEND
  0
POLYLINE
  8
ViaHoles
 66
1
 10
0.000000
 20
0.000000
 30
0.000000
 40
0.317500
 41
0.317500
 70
1
  0
VERTEX
  8
ViaHoles
 42
1.000000
 10
452.227950
 20
366.318800
  0
VERTEX
  8
ViaHoles
 42
1.000000
 10
452.545450
 20
366.318800
  0
SEQEND
  0
POLYLINE
  8
ViaHoles
 66
1
 10
0.000000
 20
0.000000
 30
0.000000
 40
0.317500
 41
0.317500
 70
1
  0
VERTEX
  8
ViaHoles
 42
1.000000
 10
452.227950
 20
349.758000
  0
VERTEX
  8
ViaHoles
 42
1.000000
 10
452.545450
 20
349.758000
  0
SEQEND
  0
POLYLINE
  8
ViaHoles
 66
1
 10
0.000000
 20
0.000000
 30
0.000000
 40
0.317500
 41
0.317500
 70
1
  0
VERTEX
  8
ViaHoles
 42
1.000000
 10
393.782550
 20
363.956600
  0
VERTEX
  8
ViaHoles
 42
1.000000
 10
394.100050
 20
363.956600
  0
SEQEND
  0
POLYLINE
  8
ViaHoles
 66
1
 10
0.000000
 20
0.000000
 30
0.000000
 40
0.317500
 41
0.317500
 70
1
  0
VERTEX
  8
ViaHoles
 42
1.000000
 10
432.441350
 20
358.876600
  0
VERTEX
  8
ViaHoles
 42
1.000000
 10
432.758850
 20
358.876600
  0
SEQEND
  0
POLYLINE
  8
ViaHoles
 66
1
 10
0.000000
 20
0.000000
 30
0.000000
 40
0.317500
 41
0.317500
 70
1
  0
VERTEX
  8
ViaHoles
 42
1.000000
 10
433.101750
 20
362.051600
  0
VERTEX
  8
ViaHoles
 42
1.000000
 10
433.419250
 20
362.051600
  0
SEQEND
  0
POLYLINE
  8
ViaHoles
 66
1
 10
0.000000
 20
0.000000
 30
0.000000
 40
0.317500
 41
0.317500
 70
1
  0
VERTEX
  8
ViaHoles
 42
1.000000
 10
425.253150
 20
363.372400
  0
VERTEX
  8
ViaHoles
 42
1.000000
 10
425.570650
 20
363.372400
  0
SEQEND
  0
POLYLINE
  8
ViaHoles
 66
1
 10
0.000000
 20
0.000000
 30
0.000000
 40
0.317500
 41
0.317500
 70
1
  0
VERTEX
  8
ViaHoles
 42
1.000000
 10
431.831750
 20
372.160800
  0
VERTEX
  8
ViaHoles
 42
1.000000
 10
432.149250
 20
372.160800
  0
SEQEND
  0
POLYLINE
  8
ViaHoles
 66
1
 10
0.000000
 20
0.000000
 30
0.000000
 40
0.317500
 41
0.317500
 70
1
  0
VERTEX
  8
ViaHoles
 42
1.000000
 10
329.114150
 20
364.540800
  0
VERTEX
  8
ViaHoles
 42
1.000000
 10
329.431650
 20
364.540800
  0
SEQEND
  0
POLYLINE
  8
ViaHoles
 66
1
 10
0.000000
 20
0.000000
 30
0.000000
 40
0.317500
 41
0.317500
 70
1
  0
VERTEX
  8
ViaHoles
 42
1.000000
 10
392.080750
 20
342.112600
  0
VERTEX
  8
ViaHoles
 42
1.000000
 10
392.398250
 20
342.112600
  0
SEQEND
  0
POLYLINE
  8
ViaHoles
 66
1
 10
0.000000
 20
0.000000
 30
0.000000
 40
0.317500
 41
0.317500
 70
1
  0
VERTEX
  8
ViaHoles
 42
1.000000
 10
371.684550
 20
343.179400
  0
VERTEX
  8
ViaHoles
 42
1.000000
 10
372.002050
 20
343.179400
  0
SEQEND
  0
POLYLINE
  8
ViaHoles
 66
1
 10
0.000000
 20
0.000000
 30
0.000000
 40
0.317500
 41
0.317500
 70
1
  0
VERTEX
  8
ViaHoles
 42
1.000000
 10
354.666550
 20
367.512600
  0
VERTEX
  8
ViaHoles
 42
1.000000
 10
354.984050
 20
367.512600
  0
SEQEND
  0
POLYLINE
  8
ViaHoles
 66
1
 10
0.000000
 20
0.000000
 30
0.000000
 40
0.317500
 41
0.317500
 70
1
  0
VERTEX
  8
ViaHoles
 42
1.000000
 10
365.537750
 20
367.792000
  0
VERTEX
  8
ViaHoles
 42
1.000000
 10
365.855250
 20
367.792000
  0
SEQEND
  0
POLYLINE
  8
ViaHoles
 66
1
 10
0.000000
 20
0.000000
 30
0.000000
 40
0.317500
 41
0.317500
 70
1
  0
VERTEX
  8
ViaHoles
 42
1.000000
 10
456.088750
 20
341.858600
  0
VERTEX
  8
ViaHoles
 42
1.000000
 10
456.406250
 20
341.858600
  0
SEQEND
  0
POLYLINE
  8
ViaHoles
 66
1
 10
0.000000
 20
0.000000
 30
0.000000
 40
0.317500
 41
0.317500
 70
1
  0
VERTEX
  8
ViaHoles
 42
1.000000
 10
452.761350
 20
342.138000
  0
VERTEX
  8
ViaHoles
 42
1.000000
 10
453.078850
 20
342.138000
  0
SEQEND
  0
POLYLINE
  8
ViaHoles
 66
1
 10
0.000000
 20
0.000000
 30
0.000000
 40
0.317500
 41
0.317500
 70
1
  0
VERTEX
  8
ViaHoles
 42
1.000000
 10
460.279750
 20
338.937600
  0
VERTEX
  8
ViaHoles
 42
1.000000
 10
460.597250
 20
338.937600
  0
SEQEND
  0
POLYLINE
  8
ViaHoles
 66
1
 10
0.000000
 20
0.000000
 30
0.000000
 40
0.317500
 41
0.317500
 70
1
  0
VERTEX
  8
ViaHoles
 42
1.000000
 10
449.103750
 20
342.493600
  0
VERTEX
  8
ViaHoles
 42
1.000000
 10
449.421250
 20
342.493600
  0
SEQEND
  0
POLYLINE
  8
ViaHoles
 66
1
 10
0.000000
 20
0.000000
 30
0.000000
 40
0.317500
 41
0.317500
 70
1
  0
VERTEX
  8
ViaHoles
 42
1.000000
 10
443.160150
 20
340.156800
  0
VERTEX
  8
ViaHoles
 42
1.000000
 10
443.477650
 20
340.156800
  0
SEQEND
  0
POLYLINE
  8
ViaHoles
 66
1
 10
0.000000
 20
0.000000
 30
0.000000
 40
0.317500
 41
0.317500
 70
1
  0
VERTEX
  8
ViaHoles
 42
1.000000
 10
444.836550
 20
344.347800
  0
VERTEX
  8
ViaHoles
 42
1.000000
 10
445.154050
 20
344.347800
  0
SEQEND
  0
POLYLINE
  8
ViaHoles
 66
1
 10
0.000000
 20
0.000000
 30
0.000000
 40
0.317500
 41
0.317500
 70
1
  0
VERTEX
  8
ViaHoles
 42
1.000000
 10
352.405950
 20
359.130600
  0
VERTEX
  8
ViaHoles
 42
1.000000
 10
352.723450
 20
359.130600
  0
SEQEND
  0
POLYLINE
  8
ViaHoles
 66
1
 10
0.000000
 20
0.000000
 30
0.000000
 40
0.317500
 41
0.317500
 70
1
  0
VERTEX
  8
ViaHoles
 42
1.000000
 10
447.224150
 20
349.986600
  0
VERTEX
  8
ViaHoles
 42
1.000000
 10
447.541650
 20
349.986600
  0
SEQEND
  0
POLYLINE
  8
ViaHoles
 66
1
 10
0.000000
 20
0.000000
 30
0.000000
 40
0.317500
 41
0.317500
 70
1
  0
VERTEX
  8
ViaHoles
 42
1.000000
 10
451.161150
 20
373.761000
  0
VERTEX
  8
ViaHoles
 42
1.000000
 10
451.478650
 20
373.761000
  0
SEQEND
  0
POLYLINE
  8
ViaHoles
 66
1
 10
0.000000
 20
0.000000
 30
0.000000
 40
0.317500
 41
0.317500
 70
1
  0
VERTEX
  8
ViaHoles
 42
1.000000
 10
358.146350
 20
359.562400
  0
VERTEX
  8
ViaHoles
 42
1.000000
 10
358.463850
 20
359.562400
  0
SEQEND
  0
POLYLINE
  8
ViaHoles
 66
1
 10
0.000000
 20
0.000000
 30
0.000000
 40
0.317500
 41
0.317500
 70
1
  0
VERTEX
  8
ViaHoles
 42
1.000000
 10
354.742750
 20
356.743000
  0
VERTEX
  8
ViaHoles
 42
1.000000
 10
355.060250
 20
356.743000
  0
SEQEND
  0
POLYLINE
  8
ViaHoles
 66
1
 10
0.000000
 20
0.000000
 30
0.000000
 40
0.317500
 41
0.317500
 70
1
  0
VERTEX
  8
ViaHoles
 42
1.000000
 10
450.297550
 20
351.256600
  0
VERTEX
  8
ViaHoles
 42
1.000000
 10
450.615050
 20
351.256600
  0
SEQEND
  0
POLYLINE
  8
ViaHoles
 66
1
 10
0.000000
 20
0.000000
 30
0.000000
 40
0.317500
 41
0.317500
 70
1
  0
VERTEX
  8
ViaHoles
 42
1.000000
 10
345.776550
 20
336.550000
  0
VERTEX
  8
ViaHoles
 42
1.000000
 10
346.094050
 20
336.550000
  0
SEQEND
  0
POLYLINE
  8
ViaHoles
 66
1
 10
0.000000
 20
0.000000
 30
0.000000
 40
0.317500
 41
0.317500
 70
1
  0
VERTEX
  8
ViaHoles
 42
1.000000
 10
439.096150
 20
335.610200
  0
VERTEX
  8
ViaHoles
 42
1.000000
 10
439.413650
 20
335.610200
  0
SEQEND
  0
POLYLINE
  8
ViaHoles
 66
1
 10
0.000000
 20
0.000000
 30
0.000000
 40
0.317500
 41
0.317500
 70
1
  0
VERTEX
  8
ViaHoles
 42
1.000000
 10
447.401950
 20
352.526600
  0
VERTEX
  8
ViaHoles
 42
1.000000
 10
447.719450
 20
352.526600
  0
SEQEND
  0
POLYLINE
  8
ViaHoles
 66
1
 10
0.000000
 20
0.000000
 30
0.000000
 40
0.317500
 41
0.317500
 70
1
  0
VERTEX
  8
ViaHoles
 42
1.000000
 10
348.697550
 20
364.515400
  0
VERTEX
  8
ViaHoles
 42
1.000000
 10
349.015050
 20
364.515400
  0
SEQEND
  0
POLYLINE
  8
ViaHoles
 66
1
 10
0.000000
 20
0.000000
 30
0.000000
 40
0.317500
 41
0.317500
 70
1
  0
VERTEX
  8
ViaHoles
 42
1.000000
 10
455.555350
 20
356.336600
  0
VERTEX
  8
ViaHoles
 42
1.000000
 10
455.872850
 20
356.336600
  0
SEQEND
  0
POLYLINE
  8
ViaHoles
 66
1
 10
0.000000
 20
0.000000
 30
0.000000
 40
0.317500
 41
0.317500
 70
1
  0
VERTEX
  8
ViaHoles
 42
1.000000
 10
437.241950
 20
350.824800
  0
VERTEX
  8
ViaHoles
 42
1.000000
 10
437.559450
 20
350.824800
  0
SEQEND
  0
POLYLINE
  8
ViaHoles
 66
1
 10
0.000000
 20
0.000000
 30
0.000000
 40
0.317500
 41
0.317500
 70
1
  0
VERTEX
  8
ViaHoles
 42
1.000000
 10
443.388750
 20
360.146600
  0
VERTEX
  8
ViaHoles
 42
1.000000
 10
443.706250
 20
360.146600
  0
SEQEND
  0
POLYLINE
  8
ViaHoles
 66
1
 10
0.000000
 20
0.000000
 30
0.000000
 40
0.317500
 41
0.317500
 70
1
  0
VERTEX
  8
ViaHoles
 42
1.000000
 10
425.481750
 20
347.446600
  0
VERTEX
  8
ViaHoles
 42
1.000000
 10
425.799250
 20
347.446600
  0
SEQEND
  0
POLYLINE
  8
ViaHoles
 66
1
 10
0.000000
 20
0.000000
 30
0.000000
 40
0.317500
 41
0.317500
 70
1
  0
VERTEX
  8
ViaHoles
 42
1.000000
 10
450.297550
 20
360.146600
  0
VERTEX
  8
ViaHoles
 42
1.000000
 10
450.615050
 20
360.146600
  0
SEQEND
  0
POLYLINE
  8
ViaHoles
 66
1
 10
0.000000
 20
0.000000
 30
0.000000
 40
0.317500
 41
0.317500
 70
1
  0
VERTEX
  8
ViaHoles
 42
1.000000
 10
358.247950
 20
356.336600
  0
VERTEX
  8
ViaHoles
 42
1.000000
 10
358.565450
 20
356.336600
  0
SEQEND
  0
POLYLINE
  8
ViaHoles
 66
1
 10
0.000000
 20
0.000000
 30
0.000000
 40
0.317500
 41
0.317500
 70
1
  0
VERTEX
  8
ViaHoles
 42
1.000000
 10
370.389150
 20
372.287800
  0
VERTEX
  8
ViaHoles
 42
1.000000
 10
370.706650
 20
372.287800
  0
SEQEND
  0
POLYLINE
  8
ViaHoles
 66
1
 10
0.000000
 20
0.000000
 30
0.000000
 40
0.317500
 41
0.317500
 70
1
  0
VERTEX
  8
ViaHoles
 42
1.000000
 10
367.315750
 20
358.571800
  0
VERTEX
  8
ViaHoles
 42
1.000000
 10
367.633250
 20
358.571800
  0
SEQEND
  0
POLYLINE
  8
ViaHoles
 66
1
 10
0.000000
 20
0.000000
 30
0.000000
 40
0.317500
 41
0.317500
 70
1
  0
VERTEX
  8
ViaHoles
 42
1.000000
 10
367.315750
 20
353.923600
  0
VERTEX
  8
ViaHoles
 42
1.000000
 10
367.633250
 20
353.923600
  0
SEQEND
  0
POLYLINE
  8
ViaHoles
 66
1
 10
0.000000
 20
0.000000
 30
0.000000
 40
0.317500
 41
0.317500
 70
1
  0
VERTEX
  8
ViaHoles
 42
1.000000
 10
366.020350
 20
362.229400
  0
VERTEX
  8
ViaHoles
 42
1.000000
 10
366.337850
 20
362.229400
  0
SEQEND
  0
POLYLINE
  8
ViaHoles
 66
1
 10
0.000000
 20
0.000000
 30
0.000000
 40
0.317500
 41
0.317500
 70
1
  0
VERTEX
  8
ViaHoles
 42
1.000000
 10
361.651550
 20
353.923600
  0
VERTEX
  8
ViaHoles
 42
1.000000
 10
361.969050
 20
353.923600
  0
SEQEND
  0
POLYLINE
  8
ViaHoles
 66
1
 10
0.000000
 20
0.000000
 30
0.000000
 40
0.317500
 41
0.317500
 70
1
  0
VERTEX
  8
ViaHoles
 42
1.000000
 10
363.251750
 20
357.606600
  0
VERTEX
  8
ViaHoles
 42
1.000000
 10
363.569250
 20
357.606600
  0
SEQEND
  0
POLYLINE
  8
ViaHoles
 66
1
 10
0.000000
 20
0.000000
 30
0.000000
 40
0.317500
 41
0.317500
 70
1
  0
VERTEX
  8
ViaHoles
 42
1.000000
 10
431.171350
 20
342.366600
  0
VERTEX
  8
ViaHoles
 42
1.000000
 10
431.488850
 20
342.366600
  0
SEQEND
  0
POLYLINE
  8
ViaHoles
 66
1
 10
0.000000
 20
0.000000
 30
0.000000
 40
0.317500
 41
0.317500
 70
1
  0
VERTEX
  8
ViaHoles
 42
1.000000
 10
428.809150
 20
348.894400
  0
VERTEX
  8
ViaHoles
 42
1.000000
 10
429.126650
 20
348.894400
  0
SEQEND
  0
POLYLINE
  8
ViaHoles
 66
1
 10
0.000000
 20
0.000000
 30
0.000000
 40
0.317500
 41
0.317500
 70
1
  0
VERTEX
  8
ViaHoles
 42
1.000000
 10
423.983150
 20
340.842600
  0
VERTEX
  8
ViaHoles
 42
1.000000
 10
424.300650
 20
340.842600
  0
SEQEND
  0
POLYLINE
  8
ViaHoles
 66
1
 10
0.000000
 20
0.000000
 30
0.000000
 40
0.317500
 41
0.317500
 70
1
  0
VERTEX
  8
ViaHoles
 42
1.000000
 10
424.211750
 20
349.351600
  0
VERTEX
  8
ViaHoles
 42
1.000000
 10
424.529250
 20
349.351600
  0
SEQEND
  0
POLYLINE
  8
ViaHoles
 66
1
 10
0.000000
 20
0.000000
 30
0.000000
 40
0.317500
 41
0.317500
 70
1
  0
VERTEX
  8
ViaHoles
 42
1.000000
 10
403.256750
 20
369.290600
  0
VERTEX
  8
ViaHoles
 42
1.000000
 10
403.574250
 20
369.290600
  0
SEQEND
  0
POLYLINE
  8
ViaHoles
 66
1
 10
0.000000
 20
0.000000
 30
0.000000
 40
0.317500
 41
0.317500
 70
1
  0
VERTEX
  8
ViaHoles
 42
1.000000
 10
456.545950
 20
360.146600
  0
VERTEX
  8
ViaHoles
 42
1.000000
 10
456.863450
 20
360.146600
  0
SEQEND
  0
POLYLINE
  8
ViaHoles
 66
1
 10
0.000000
 20
0.000000
 30
0.000000
 40
0.317500
 41
0.317500
 70
1
  0
VERTEX
  8
ViaHoles
 42
1.000000
 10
400.665950
 20
349.681800
  0
VERTEX
  8
ViaHoles
 42
1.000000
 10
400.983450
 20
349.681800
  0
SEQEND
  0
POLYLINE
  8
ViaHoles
 66
1
 10
0.000000
 20
0.000000
 30
0.000000
 40
0.317500
 41
0.317500
 70
1
  0
VERTEX
  8
ViaHoles
 42
1.000000
 10
396.043150
 20
359.892600
  0
VERTEX
  8
ViaHoles
 42
1.000000
 10
396.360650
 20
359.892600
  0
SEQEND
  0
POLYLINE
  8
ViaHoles
 66
1
 10
0.000000
 20
0.000000
 30
0.000000
 40
0.317500
 41
0.317500
 70
1
  0
VERTEX
  8
ViaHoles
 42
1.000000
 10
422.941750
 20
343.839800
  0
VERTEX
  8
ViaHoles
 42
1.000000
 10
423.259250
 20
343.839800
  0
SEQEND
  0
POLYLINE
  8
ViaHoles
 66
1
 10
0.000000
 20
0.000000
 30
0.000000
 40
0.317500
 41
0.317500
 70
1
  0
VERTEX
  8
ViaHoles
 42
1.000000
 10
447.020950
 20
355.777800
  0
VERTEX
  8
ViaHoles
 42
1.000000
 10
447.338450
 20
355.777800
  0
SEQEND
  0
POLYLINE
  8
ViaHoles
 66
1
 10
0.000000
 20
0.000000
 30
0.000000
 40
0.317500
 41
0.317500
 70
1
  0
VERTEX
  8
ViaHoles
 42
1.000000
 10
443.033150
 20
346.862400
  0
VERTEX
  8
ViaHoles
 42
1.000000
 10
443.350650
 20
346.862400
  0
SEQEND
  0
POLYLINE
  8
ViaHoles
 66
1
 10
0.000000
 20
0.000000
 30
0.000000
 40
0.317500
 41
0.317500
 70
1
  0
VERTEX
  8
ViaHoles
 42
1.000000
 10
407.041350
 20
337.388200
  0
VERTEX
  8
ViaHoles
 42
1.000000
 10
407.358850
 20
337.388200
  0
SEQEND
  0
POLYLINE
  8
ViaHoles
 66
1
 10
0.000000
 20
0.000000
 30
0.000000
 40
0.317500
 41
0.317500
 70
1
  0
VERTEX
  8
ViaHoles
 42
1.000000
 10
407.041350
 20
344.170000
  0
VERTEX
  8
ViaHoles
 42
1.000000
 10
407.358850
 20
344.170000
  0
SEQEND
  0
POLYLINE
  8
ViaHoles
 66
1
 10
0.000000
 20
0.000000
 30
0.000000
 40
0.317500
 41
0.317500
 70
1
  0
VERTEX
  8
ViaHoles
 42
1.000000
 10
407.041350
 20
353.136200
  0
VERTEX
  8
ViaHoles
 42
1.000000
 10
407.358850
 20
353.136200
  0
SEQEND
  0
POLYLINE
  8
ViaHoles
 66
1
 10
0.000000
 20
0.000000
 30
0.000000
 40
0.317500
 41
0.317500
 70
1
  0
VERTEX
  8
ViaHoles
 42
1.000000
 10
345.141550
 20
363.601000
  0
VERTEX
  8
ViaHoles
 42
1.000000
 10
345.459050
 20
363.601000
  0
SEQEND
  0
POLYLINE
  8
ViaHoles
 66
1
 10
0.000000
 20
0.000000
 30
0.000000
 40
0.317500
 41
0.317500
 70
1
  0
VERTEX
  8
ViaHoles
 42
1.000000
 10
464.623150
 20
355.549200
  0
VERTEX
  8
ViaHoles
 42
1.000000
 10
464.940650
 20
355.549200
  0
SEQEND
  0
POLYLINE
  8
ViaHoles
 66
1
 10
0.000000
 20
0.000000
 30
0.000000
 40
0.317500
 41
0.317500
 70
1
  0
VERTEX
  8
ViaHoles
 42
1.000000
 10
463.048350
 20
368.020600
  0
VERTEX
  8
ViaHoles
 42
1.000000
 10
463.365850
 20
368.020600
  0
SEQEND
  0
POLYLINE
  8
ViaHoles
 66
1
 10
0.000000
 20
0.000000
 30
0.000000
 40
0.317500
 41
0.317500
 70
1
  0
VERTEX
  8
ViaHoles
 42
1.000000
 10
354.945950
 20
361.035600
  0
VERTEX
  8
ViaHoles
 42
1.000000
 10
355.263450
 20
361.035600
  0
SEQEND
  0
POLYLINE
  8
ViaHoles
 66
1
 10
0.000000
 20
0.000000
 30
0.000000
 40
0.317500
 41
0.317500
 70
1
  0
VERTEX
  8
ViaHoles
 42
1.000000
 10
380.549150
 20
353.796600
  0
VERTEX
  8
ViaHoles
 42
1.000000
 10
380.866650
 20
353.796600
  0
SEQEND
  0
POLYLINE
  8
ViaHoles
 66
1
 10
0.000000
 20
0.000000
 30
0.000000
 40
0.317500
 41
0.317500
 70
1
  0
VERTEX
  8
ViaHoles
 42
1.000000
 10
397.211550
 20
349.300800
  0
VERTEX
  8
ViaHoles
 42
1.000000
 10
397.529050
 20
349.300800
  0
SEQEND
  0
POLYLINE
  8
ViaHoles
 66
1
 10
0.000000
 20
0.000000
 30
0.000000
 40
0.317500
 41
0.317500
 70
1
  0
VERTEX
  8
ViaHoles
 42
1.000000
 10
402.240750
 20
340.182200
  0
VERTEX
  8
ViaHoles
 42
1.000000
 10
402.558250
 20
340.182200
  0
SEQEND
  0
POLYLINE
  8
ViaHoles
 66
1
 10
0.000000
 20
0.000000
 30
0.000000
 40
0.317500
 41
0.317500
 70
1
  0
VERTEX
  8
ViaHoles
 42
1.000000
 10
400.107150
 20
340.182200
  0
VERTEX
  8
ViaHoles
 42
1.000000
 10
400.424650
 20
340.182200
  0
SEQEND
  0
POLYLINE
  8
ViaHoles
 66
1
 10
0.000000
 20
0.000000
 30
0.000000
 40
0.317500
 41
0.317500
 70
1
  0
VERTEX
  8
ViaHoles
 42
1.000000
 10
434.168550
 20
347.167200
  0
VERTEX
  8
ViaHoles
 42
1.000000
 10
434.486050
 20
347.167200
  0
SEQEND
  0
POLYLINE
  8
ViaHoles
 66
1
 10
0.000000
 20
0.000000
 30
0.000000
 40
0.317500
 41
0.317500
 70
1
  0
VERTEX
  8
ViaHoles
 42
1.000000
 10
430.612550
 20
361.315000
  0
VERTEX
  8
ViaHoles
 42
1.000000
 10
430.930050
 20
361.315000
  0
SEQEND
  0
POLYLINE
  8
ViaHoles
 66
1
 10
0.000000
 20
0.000000
 30
0.000000
 40
0.317500
 41
0.317500
 70
1
  0
VERTEX
  8
ViaHoles
 42
1.000000
 10
419.817550
 20
359.587800
  0
VERTEX
  8
ViaHoles
 42
1.000000
 10
420.135050
 20
359.587800
  0
SEQEND
  0
POLYLINE
  8
ViaHoles
 66
1
 10
0.000000
 20
0.000000
 30
0.000000
 40
0.317500
 41
0.317500
 70
1
  0
VERTEX
  8
ViaHoles
 42
1.000000
 10
414.508950
 20
359.816400
  0
VERTEX
  8
ViaHoles
 42
1.000000
 10
414.826450
 20
359.816400
  0
SEQEND
  0
POLYLINE
  8
ViaHoles
 66
1
 10
0.000000
 20
0.000000
 30
0.000000
 40
0.317500
 41
0.317500
 70
1
  0
VERTEX
  8
ViaHoles
 42
1.000000
 10
401.427950
 20
361.264200
  0
VERTEX
  8
ViaHoles
 42
1.000000
 10
401.745450
 20
361.264200
  0
SEQEND
  0
POLYLINE
  8
ViaHoles
 66
1
 10
0.000000
 20
0.000000
 30
0.000000
 40
0.317500
 41
0.317500
 70
1
  0
VERTEX
  8
ViaHoles
 42
1.000000
 10
419.131750
 20
356.793800
  0
VERTEX
  8
ViaHoles
 42
1.000000
 10
419.449250
 20
356.793800
  0
SEQEND
  0
POLYLINE
  8
ViaHoles
 66
1
 10
0.000000
 20
0.000000
 30
0.000000
 40
0.317500
 41
0.317500
 70
1
  0
VERTEX
  8
ViaHoles
 42
1.000000
 10
431.831750
 20
362.051600
  0
VERTEX
  8
ViaHoles
 42
1.000000
 10
432.149250
 20
362.051600
  0
SEQEND
  0
POLYLINE
  8
ViaHoles
 66
1
 10
0.000000
 20
0.000000
 30
0.000000
 40
0.317500
 41
0.317500
 70
1
  0
VERTEX
  8
ViaHoles
 42
1.000000
 10
421.951150
 20
358.343200
  0
VERTEX
  8
ViaHoles
 42
1.000000
 10
422.268650
 20
358.343200
  0
SEQEND
  0
POLYLINE
  8
ViaHoles
 66
1
 10
0.000000
 20
0.000000
 30
0.000000
 40
0.317500
 41
0.317500
 70
1
  0
VERTEX
  8
ViaHoles
 42
1.000000
 10
421.671750
 20
352.323400
  0
VERTEX
  8
ViaHoles
 42
1.000000
 10
421.989250
 20
352.323400
  0
SEQEND
  0
POLYLINE
  8
ViaHoles
 66
1
 10
0.000000
 20
0.000000
 30
0.000000
 40
0.317500
 41
0.317500
 70
1
  0
VERTEX
  8
ViaHoles
 42
1.000000
 10
422.662350
 20
357.555800
  0
VERTEX
  8
ViaHoles
 42
1.000000
 10
422.979850
 20
357.555800
  0
SEQEND
  0
POLYLINE
  8
ViaHoles
 66
1
 10
0.000000
 20
0.000000
 30
0.000000
 40
0.317500
 41
0.317500
 70
1
  0
VERTEX
  8
ViaHoles
 42
1.000000
 10
422.306750
 20
363.245400
  0
VERTEX
  8
ViaHoles
 42
1.000000
 10
422.624250
 20
363.245400
  0
SEQEND
  0
POLYLINE
  8
ViaHoles
 66
1
 10
0.000000
 20
0.000000
 30
0.000000
 40
0.317500
 41
0.317500
 70
1
  0
VERTEX
  8
ViaHoles
 42
1.000000
 10
416.515550
 20
365.125000
  0
VERTEX
  8
ViaHoles
 42
1.000000
 10
416.833050
 20
365.125000
  0
SEQEND
  0
POLYLINE
  8
ViaHoles
 66
1
 10
0.000000
 20
0.000000
 30
0.000000
 40
0.317500
 41
0.317500
 70
1
  0
VERTEX
  8
ViaHoles
 42
1.000000
 10
412.324550
 20
362.991400
  0
VERTEX
  8
ViaHoles
 42
1.000000
 10
412.642050
 20
362.991400
  0
SEQEND
  0
POLYLINE
  8
ViaHoles
 66
1
 10
0.000000
 20
0.000000
 30
0.000000
 40
0.317500
 41
0.317500
 70
1
  0
VERTEX
  8
ViaHoles
 42
1.000000
 10
403.282150
 20
362.026200
  0
VERTEX
  8
ViaHoles
 42
1.000000
 10
403.599650
 20
362.026200
  0
SEQEND
  0
POLYLINE
  8
ViaHoles
 66
1
 10
0.000000
 20
0.000000
 30
0.000000
 40
0.317500
 41
0.317500
 70
1
  0
VERTEX
  8
ViaHoles
 42
1.000000
 10
427.081950
 20
364.642400
  0
VERTEX
  8
ViaHoles
 42
1.000000
 10
427.399450
 20
364.642400
  0
SEQEND
  0
POLYLINE
  8
ViaHoles
 66
1
 10
0.000000
 20
0.000000
 30
0.000000
 40
0.317500
 41
0.317500
 70
1
  0
VERTEX
  8
ViaHoles
 42
1.000000
 10
436.911750
 20
372.160800
  0
VERTEX
  8
ViaHoles
 42
1.000000
 10
437.229250
 20
372.160800
  0
SEQEND
  0
POLYLINE
  8
ViaHoles
 66
1
 10
0.000000
 20
0.000000
 30
0.000000
 40
0.317500
 41
0.317500
 70
1
  0
VERTEX
  8
ViaHoles
 42
1.000000
 10
438.181750
 20
371.830600
  0
VERTEX
  8
ViaHoles
 42
1.000000
 10
438.499250
 20
371.830600
  0
SEQEND
  0
POLYLINE
  8
ViaHoles
 66
1
 10
0.000000
 20
0.000000
 30
0.000000
 40
0.317500
 41
0.317500
 70
1
  0
VERTEX
  8
ViaHoles
 42
1.000000
 10
424.745150
 20
360.299000
  0
VERTEX
  8
ViaHoles
 42
1.000000
 10
425.062650
 20
360.299000
  0
SEQEND
  0
POLYLINE
  8
ViaHoles
 66
1
 10
0.000000
 20
0.000000
 30
0.000000
 40
0.317500
 41
0.317500
 70
1
  0
VERTEX
  8
ViaHoles
 42
1.000000
 10
440.721750
 20
372.160800
  0
VERTEX
  8
ViaHoles
 42
1.000000
 10
441.039250
 20
372.160800
  0
SEQEND
  0
POLYLINE
  8
ViaHoles
 66
1
 10
0.000000
 20
0.000000
 30
0.000000
 40
0.317500
 41
0.317500
 70
1
  0
VERTEX
  8
ViaHoles
 42
1.000000
 10
370.973350
 20
364.312200
  0
VERTEX
  8
ViaHoles
 42
1.000000
 10
371.290850
 20
364.312200
  0
SEQEND
  0
POLYLINE
  8
ViaHoles
 66
1
 10
0.000000
 20
0.000000
 30
0.000000
 40
0.317500
 41
0.317500
 70
1
  0
VERTEX
  8
ViaHoles
 42
1.000000
 10
371.481350
 20
356.387400
  0
VERTEX
  8
ViaHoles
 42
1.000000
 10
371.798850
 20
356.387400
  0
SEQEND
  0
POLYLINE
  8
ViaHoles
 66
1
 10
0.000000
 20
0.000000
 30
0.000000
 40
0.317500
 41
0.317500
 70
1
  0
VERTEX
  8
ViaHoles
 42
1.000000
 10
366.452150
 20
370.840000
  0
VERTEX
  8
ViaHoles
 42
1.000000
 10
366.769650
 20
370.840000
  0
SEQEND
  0
POLYLINE
  8
ViaHoles
 66
1
 10
0.000000
 20
0.000000
 30
0.000000
 40
0.317500
 41
0.317500
 70
1
  0
VERTEX
  8
ViaHoles
 42
1.000000
 10
366.452150
 20
366.471200
  0
VERTEX
  8
ViaHoles
 42
1.000000
 10
366.769650
 20
366.471200
  0
SEQEND
  0
POLYLINE
  8
ViaHoles
 66
1
 10
0.000000
 20
0.000000
 30
0.000000
 40
0.317500
 41
0.317500
 70
1
  0
VERTEX
  8
ViaHoles
 42
1.000000
 10
374.453150
 20
338.759800
  0
VERTEX
  8
ViaHoles
 42
1.000000
 10
374.770650
 20
338.759800
  0
SEQEND
  0
POLYLINE
  8
ViaHoles
 66
1
 10
0.000000
 20
0.000000
 30
0.000000
 40
0.317500
 41
0.317500
 70
1
  0
VERTEX
  8
ViaHoles
 42
1.000000
 10
441.661550
 20
365.760000
  0
VERTEX
  8
ViaHoles
 42
1.000000
 10
441.979050
 20
365.760000
  0
SEQEND
  0
POLYLINE
  8
ViaHoles
 66
1
 10
0.000000
 20
0.000000
 30
0.000000
 40
0.317500
 41
0.317500
 70
1
  0
VERTEX
  8
ViaHoles
 42
1.000000
 10
441.661550
 20
370.636800
  0
VERTEX
  8
ViaHoles
 42
1.000000
 10
441.979050
 20
370.636800
  0
SEQEND
  0
POLYLINE
  8
ViaHoles
 66
1
 10
0.000000
 20
0.000000
 30
0.000000
 40
0.317500
 41
0.317500
 70
1
  0
VERTEX
  8
ViaHoles
 42
1.000000
 10
432.441350
 20
357.606600
  0
VERTEX
  8
ViaHoles
 42
1.000000
 10
432.758850
 20
357.606600
  0
SEQEND
  0
POLYLINE
  8
ViaHoles
 66
1
 10
0.000000
 20
0.000000
 30
0.000000
 40
0.317500
 41
0.317500
 70
1
  0
VERTEX
  8
ViaHoles
 42
1.000000
 10
444.811150
 20
357.606600
  0
VERTEX
  8
ViaHoles
 42
1.000000
 10
445.128650
 20
357.606600
  0
SEQEND
  0
POLYLINE
  8
ViaHoles
 66
1
 10
0.000000
 20
0.000000
 30
0.000000
 40
0.317500
 41
0.317500
 70
1
  0
VERTEX
  8
ViaHoles
 42
1.000000
 10
434.371750
 20
362.889800
  0
VERTEX
  8
ViaHoles
 42
1.000000
 10
434.689250
 20
362.889800
  0
SEQEND
  0
POLYLINE
  8
ViaHoles
 66
1
 10
0.000000
 20
0.000000
 30
0.000000
 40
0.317500
 41
0.317500
 70
1
  0
VERTEX
  8
ViaHoles
 42
1.000000
 10
450.297550
 20
353.898200
  0
VERTEX
  8
ViaHoles
 42
1.000000
 10
450.615050
 20
353.898200
  0
SEQEND
  0
POLYLINE
  8
ViaHoles
 66
1
 10
0.000000
 20
0.000000
 30
0.000000
 40
0.317500
 41
0.317500
 70
1
  0
VERTEX
  8
ViaHoles
 42
1.000000
 10
439.807350
 20
338.353400
  0
VERTEX
  8
ViaHoles
 42
1.000000
 10
440.124850
 20
338.353400
  0
SEQEND
  0
POLYLINE
  8
ViaHoles
 66
1
 10
0.000000
 20
0.000000
 30
0.000000
 40
0.317500
 41
0.317500
 70
1
  0
VERTEX
  8
ViaHoles
 42
1.000000
 10
422.586150
 20
354.304600
  0
VERTEX
  8
ViaHoles
 42
1.000000
 10
422.903650
 20
354.304600
  0
SEQEND
  0
POLYLINE
  8
ViaHoles
 66
1
 10
0.000000
 20
0.000000
 30
0.000000
 40
0.317500
 41
0.317500
 70
1
  0
VERTEX
  8
ViaHoles
 42
1.000000
 10
443.769750
 20
336.905600
  0
VERTEX
  8
ViaHoles
 42
1.000000
 10
444.087250
 20
336.905600
  0
SEQEND
  0
POLYLINE
  8
ViaHoles
 66
1
 10
0.000000
 20
0.000000
 30
0.000000
 40
0.317500
 41
0.317500
 70
1
  0
VERTEX
  8
ViaHoles
 42
1.000000
 10
423.525950
 20
356.997000
  0
VERTEX
  8
ViaHoles
 42
1.000000
 10
423.843450
 20
356.997000
  0
SEQEND
  0
POLYLINE
  8
ViaHoles
 66
1
 10
0.000000
 20
0.000000
 30
0.000000
 40
0.317500
 41
0.317500
 70
1
  0
VERTEX
  8
ViaHoles
 42
1.000000
 10
423.881550
 20
360.603800
  0
VERTEX
  8
ViaHoles
 42
1.000000
 10
424.199050
 20
360.603800
  0
SEQEND
  0
POLYLINE
  8
ViaHoles
 66
1
 10
0.000000
 20
0.000000
 30
0.000000
 40
0.317500
 41
0.317500
 70
1
  0
VERTEX
  8
ViaHoles
 42
1.000000
 10
335.006950
 20
345.109800
  0
VERTEX
  8
ViaHoles
 42
1.000000
 10
335.324450
 20
345.109800
  0
SEQEND
  0
POLYLINE
  8
ViaHoles
 66
1
 10
0.000000
 20
0.000000
 30
0.000000
 40
0.317500
 41
0.317500
 70
1
  0
VERTEX
  8
ViaHoles
 42
1.000000
 10
348.773750
 20
374.370600
  0
VERTEX
  8
ViaHoles
 42
1.000000
 10
349.091250
 20
374.370600
  0
SEQEND
  0
POLYLINE
  8
ViaHoles
 66
1
 10
0.000000
 20
0.000000
 30
0.000000
 40
0.317500
 41
0.317500
 70
1
  0
VERTEX
  8
ViaHoles
 42
1.000000
 10
352.583750
 20
374.370600
  0
VERTEX
  8
ViaHoles
 42
1.000000
 10
352.901250
 20
374.370600
  0
SEQEND
  0
POLYLINE
  8
ViaHoles
 66
1
 10
0.000000
 20
0.000000
 30
0.000000
 40
0.317500
 41
0.317500
 70
1
  0
VERTEX
  8
ViaHoles
 42
1.000000
 10
332.746350
 20
347.573600
  0
VERTEX
  8
ViaHoles
 42
1.000000
 10
333.063850
 20
347.573600
  0
SEQEND
  0
POLYLINE
  8
ViaHoles
 66
1
 10
0.000000
 20
0.000000
 30
0.000000
 40
0.317500
 41
0.317500
 70
1
  0
VERTEX
  8
ViaHoles
 42
1.000000
 10
346.741750
 20
373.100600
  0
VERTEX
  8
ViaHoles
 42
1.000000
 10
347.059250
 20
373.100600
  0
SEQEND
  0
POLYLINE
  8
ViaHoles
 66
1
 10
0.000000
 20
0.000000
 30
0.000000
 40
0.317500
 41
0.317500
 70
1
  0
VERTEX
  8
ViaHoles
 42
1.000000
 10
329.317350
 20
358.190800
  0
VERTEX
  8
ViaHoles
 42
1.000000
 10
329.634850
 20
358.190800
  0
SEQEND
  0
POLYLINE
  8
ViaHoles
 66
1
 10
0.000000
 20
0.000000
 30
0.000000
 40
0.317500
 41
0.317500
 70
1
  0
VERTEX
  8
ViaHoles
 42
1.000000
 10
435.082950
 20
348.996000
  0
VERTEX
  8
ViaHoles
 42
1.000000
 10
435.400450
 20
348.996000
  0
SEQEND
  0
POLYLINE
  8
ViaHoles
 66
1
 10
0.000000
 20
0.000000
 30
0.000000
 40
0.317500
 41
0.317500
 70
1
  0
VERTEX
  8
ViaHoles
 42
1.000000
 10
441.712350
 20
361.543600
  0
VERTEX
  8
ViaHoles
 42
1.000000
 10
442.029850
 20
361.543600
  0
SEQEND
  0
POLYLINE
  8
ViaHoles
 66
1
 10
0.000000
 20
0.000000
 30
0.000000
 40
0.317500
 41
0.317500
 70
1
  0
VERTEX
  8
ViaHoles
 42
1.000000
 10
404.526750
 20
367.665000
  0
VERTEX
  8
ViaHoles
 42
1.000000
 10
404.844250
 20
367.665000
  0
SEQEND
  0
POLYLINE
  8
ViaHoles
 66
1
 10
0.000000
 20
0.000000
 30
0.000000
 40
0.317500
 41
0.317500
 70
1
  0
VERTEX
  8
ViaHoles
 42
1.000000
 10
414.712150
 20
357.860600
  0
VERTEX
  8
ViaHoles
 42
1.000000
 10
415.029650
 20
357.860600
  0
SEQEND
  0
POLYLINE
  8
ViaHoles
 66
1
 10
0.000000
 20
0.000000
 30
0.000000
 40
0.317500
 41
0.317500
 70
1
  0
VERTEX
  8
ViaHoles
 42
1.000000
 10
416.667950
 20
338.810600
  0
VERTEX
  8
ViaHoles
 42
1.000000
 10
416.985450
 20
338.810600
  0
SEQEND
  0
POLYLINE
  8
ViaHoles
 66
1
 10
0.000000
 20
0.000000
 30
0.000000
 40
0.317500
 41
0.317500
 70
1
  0
VERTEX
  8
ViaHoles
 42
1.000000
 10
449.789550
 20
363.956600
  0
VERTEX
  8
ViaHoles
 42
1.000000
 10
450.107050
 20
363.956600
  0
SEQEND
  0
POLYLINE
  8
ViaHoles
 66
1
 10
0.000000
 20
0.000000
 30
0.000000
 40
0.317500
 41
0.317500
 70
1
  0
VERTEX
  8
ViaHoles
 42
1.000000
 10
445.293750
 20
371.830600
  0
VERTEX
  8
ViaHoles
 42
1.000000
 10
445.611250
 20
371.830600
  0
SEQEND
  0
POLYLINE
  8
ViaHoles
 66
1
 10
0.000000
 20
0.000000
 30
0.000000
 40
0.317500
 41
0.317500
 70
1
  0
VERTEX
  8
ViaHoles
 42
1.000000
 10
445.420750
 20
366.877600
  0
VERTEX
  8
ViaHoles
 42
1.000000
 10
445.738250
 20
366.877600
  0
SEQEND
  0
POLYLINE
  8
ViaHoles
 66
1
 10
0.000000
 20
0.000000
 30
0.000000
 40
0.317500
 41
0.317500
 70
1
  0
VERTEX
  8
ViaHoles
 42
1.000000
 10
449.789550
 20
368.808000
  0
VERTEX
  8
ViaHoles
 42
1.000000
 10
450.107050
 20
368.808000
  0
SEQEND
  0
POLYLINE
  8
ViaHoles
 66
1
 10
0.000000
 20
0.000000
 30
0.000000
 40
0.317500
 41
0.317500
 70
1
  0
VERTEX
  8
ViaHoles
 42
1.000000
 10
427.005750
 20
340.842600
  0
VERTEX
  8
ViaHoles
 42
1.000000
 10
427.323250
 20
340.842600
  0
SEQEND
  0
POLYLINE
  8
ViaHoles
 66
1
 10
0.000000
 20
0.000000
 30
0.000000
 40
0.317500
 41
0.317500
 70
1
  0
VERTEX
  8
ViaHoles
 42
1.000000
 10
394.747750
 20
356.997000
  0
VERTEX
  8
ViaHoles
 42
1.000000
 10
395.065250
 20
356.997000
  0
SEQEND
  0
POLYLINE
  8
ViaHoles
 66
1
 10
0.000000
 20
0.000000
 30
0.000000
 40
0.317500
 41
0.317500
 70
1
  0
VERTEX
  8
ViaHoles
 42
1.000000
 10
419.258750
 20
348.894400
  0
VERTEX
  8
ViaHoles
 42
1.000000
 10
419.576250
 20
348.894400
  0
SEQEND
  0
POLYLINE
  8
ViaHoles
 66
1
 10
0.000000
 20
0.000000
 30
0.000000
 40
0.317500
 41
0.317500
 70
1
  0
VERTEX
  8
ViaHoles
 42
1.000000
 10
353.396550
 20
366.852200
  0
VERTEX
  8
ViaHoles
 42
1.000000
 10
353.714050
 20
366.852200
  0
SEQEND
  0
POLYLINE
  8
ViaHoles
 66
1
 10
0.000000
 20
0.000000
 30
0.000000
 40
0.317500
 41
0.317500
 70
1
  0
VERTEX
  8
ViaHoles
 42
1.000000
 10
374.808750
 20
351.866200
  0
VERTEX
  8
ViaHoles
 42
1.000000
 10
375.126250
 20
351.866200
  0
SEQEND
  0
POLYLINE
  8
ViaHoles
 66
1
 10
0.000000
 20
0.000000
 30
0.000000
 40
0.317500
 41
0.317500
 70
1
  0
VERTEX
  8
ViaHoles
 42
1.000000
 10
391.191750
 20
361.569000
  0
VERTEX
  8
ViaHoles
 42
1.000000
 10
391.509250
 20
361.569000
  0
SEQEND
  0
POLYLINE
  8
ViaHoles
 66
1
 10
0.000000
 20
0.000000
 30
0.000000
 40
0.317500
 41
0.317500
 70
1
  0
VERTEX
  8
ViaHoles
 42
1.000000
 10
361.473750
 20
355.193600
  0
VERTEX
  8
ViaHoles
 42
1.000000
 10
361.791250
 20
355.193600
  0
SEQEND
  0
POLYLINE
  8
ViaHoles
 66
1
 10
0.000000
 20
0.000000
 30
0.000000
 40
0.317500
 41
0.317500
 70
1
  0
VERTEX
  8
ViaHoles
 42
1.000000
 10
352.126550
 20
365.582200
  0
VERTEX
  8
ViaHoles
 42
1.000000
 10
352.444050
 20
365.582200
  0
SEQEND
  0
POLYLINE
  8
ViaHoles
 66
1
 10
0.000000
 20
0.000000
 30
0.000000
 40
0.317500
 41
0.317500
 70
1
  0
VERTEX
  8
ViaHoles
 42
1.000000
 10
413.416750
 20
357.860600
  0
VERTEX
  8
ViaHoles
 42
1.000000
 10
413.734250
 20
357.860600
  0
SEQEND
  0
POLYLINE
  8
ViaHoles
 66
1
 10
0.000000
 20
0.000000
 30
0.000000
 40
0.317500
 41
0.317500
 70
1
  0
VERTEX
  8
ViaHoles
 42
1.000000
 10
346.462350
 20
370.103400
  0
VERTEX
  8
ViaHoles
 42
1.000000
 10
346.779850
 20
370.103400
  0
SEQEND
  0
POLYLINE
  8
ViaHoles
 66
1
 10
0.000000
 20
0.000000
 30
0.000000
 40
0.317500
 41
0.317500
 70
1
  0
VERTEX
  8
ViaHoles
 42
1.000000
 10
382.835150
 20
340.080600
  0
VERTEX
  8
ViaHoles
 42
1.000000
 10
383.152650
 20
340.080600
  0
SEQEND
  0
POLYLINE
  8
ViaHoles
 66
1
 10
0.000000
 20
0.000000
 30
0.000000
 40
0.317500
 41
0.317500
 70
1
  0
VERTEX
  8
ViaHoles
 42
1.000000
 10
381.565150
 20
340.080600
  0
VERTEX
  8
ViaHoles
 42
1.000000
 10
381.882650
 20
340.080600
  0
SEQEND
  0
POLYLINE
  8
ViaHoles
 66
1
 10
0.000000
 20
0.000000
 30
0.000000
 40
0.317500
 41
0.317500
 70
1
  0
VERTEX
  8
ViaHoles
 42
1.000000
 10
483.266750
 20
341.223600
  0
VERTEX
  8
ViaHoles
 42
1.000000
 10
483.584250
 20
341.223600
  0
SEQEND
  0
POLYLINE
  8
ViaHoles
 66
1
 10
0.000000
 20
0.000000
 30
0.000000
 40
0.317500
 41
0.317500
 70
1
  0
VERTEX
  8
ViaHoles
 42
1.000000
 10
483.266750
 20
336.905600
  0
VERTEX
  8
ViaHoles
 42
1.000000
 10
483.584250
 20
336.905600
  0
SEQEND
  0
POLYLINE
  8
ViaHoles
 66
1
 10
0.000000
 20
0.000000
 30
0.000000
 40
0.317500
 41
0.317500
 70
1
  0
VERTEX
  8
ViaHoles
 42
1.000000
 10
485.298750
 20
339.064600
  0
VERTEX
  8
ViaHoles
 42
1.000000
 10
485.616250
 20
339.064600
  0
SEQEND
  0
POLYLINE
  8
ViaHoles
 66
1
 10
0.000000
 20
0.000000
 30
0.000000
 40
0.317500
 41
0.317500
 70
1
  0
VERTEX
  8
ViaHoles
 42
1.000000
 10
481.107750
 20
339.064600
  0
VERTEX
  8
ViaHoles
 42
1.000000
 10
481.425250
 20
339.064600
  0
SEQEND
  0
POLYLINE
  8
ViaHoles
 66
1
 10
0.000000
 20
0.000000
 30
0.000000
 40
0.317500
 41
0.317500
 70
1
  0
VERTEX
  8
ViaHoles
 42
1.000000
 10
481.742750
 20
340.715600
  0
VERTEX
  8
ViaHoles
 42
1.000000
 10
482.060250
 20
340.715600
  0
SEQEND
  0
POLYLINE
  8
ViaHoles
 66
1
 10
0.000000
 20
0.000000
 30
0.000000
 40
0.317500
 41
0.317500
 70
1
  0
VERTEX
  8
ViaHoles
 42
1.000000
 10
484.790750
 20
340.715600
  0
VERTEX
  8
ViaHoles
 42
1.000000
 10
485.108250
 20
340.715600
  0
SEQEND
  0
POLYLINE
  8
ViaHoles
 66
1
 10
0.000000
 20
0.000000
 30
0.000000
 40
0.317500
 41
0.317500
 70
1
  0
VERTEX
  8
ViaHoles
 42
1.000000
 10
481.869750
 20
337.413600
  0
VERTEX
  8
ViaHoles
 42
1.000000
 10
482.187250
 20
337.413600
  0
SEQEND
  0
POLYLINE
  8
ViaHoles
 66
1
 10
0.000000
 20
0.000000
 30
0.000000
 40
0.317500
 41
0.317500
 70
1
  0
VERTEX
  8
ViaHoles
 42
1.000000
 10
484.790750
 20
337.540600
  0
VERTEX
  8
ViaHoles
 42
1.000000
 10
485.108250
 20
337.540600
  0
SEQEND
  0
POLYLINE
  8
ViaHoles
 66
1
 10
0.000000
 20
0.000000
 30
0.000000
 40
0.317500
 41
0.317500
 70
1
  0
VERTEX
  8
ViaHoles
 42
1.000000
 10
329.215750
 20
374.243600
  0
VERTEX
  8
ViaHoles
 42
1.000000
 10
329.533250
 20
374.243600
  0
SEQEND
  0
POLYLINE
  8
ViaHoles
 66
1
 10
0.000000
 20
0.000000
 30
0.000000
 40
0.317500
 41
0.317500
 70
1
  0
VERTEX
  8
ViaHoles
 42
1.000000
 10
329.215750
 20
369.925600
  0
VERTEX
  8
ViaHoles
 42
1.000000
 10
329.533250
 20
369.925600
  0
SEQEND
  0
POLYLINE
  8
ViaHoles
 66
1
 10
0.000000
 20
0.000000
 30
0.000000
 40
0.317500
 41
0.317500
 70
1
  0
VERTEX
  8
ViaHoles
 42
1.000000
 10
331.374750
 20
372.084600
  0
VERTEX
  8
ViaHoles
 42
1.000000
 10
331.692250
 20
372.084600
  0
SEQEND
  0
POLYLINE
  8
ViaHoles
 66
1
 10
0.000000
 20
0.000000
 30
0.000000
 40
0.317500
 41
0.317500
 70
1
  0
VERTEX
  8
ViaHoles
 42
1.000000
 10
327.056750
 20
372.084600
  0
VERTEX
  8
ViaHoles
 42
1.000000
 10
327.374250
 20
372.084600
  0
SEQEND
  0
POLYLINE
  8
ViaHoles
 66
1
 10
0.000000
 20
0.000000
 30
0.000000
 40
0.317500
 41
0.317500
 70
1
  0
VERTEX
  8
ViaHoles
 42
1.000000
 10
327.691750
 20
373.608600
  0
VERTEX
  8
ViaHoles
 42
1.000000
 10
328.009250
 20
373.608600
  0
SEQEND
  0
POLYLINE
  8
ViaHoles
 66
1
 10
0.000000
 20
0.000000
 30
0.000000
 40
0.317500
 41
0.317500
 70
1
  0
VERTEX
  8
ViaHoles
 42
1.000000
 10
330.739750
 20
370.560600
  0
VERTEX
  8
ViaHoles
 42
1.000000
 10
331.057250
 20
370.560600
  0
SEQEND
  0
POLYLINE
  8
ViaHoles
 66
1
 10
0.000000
 20
0.000000
 30
0.000000
 40
0.317500
 41
0.317500
 70
1
  0
VERTEX
  8
ViaHoles
 42
1.000000
 10
330.612750
 20
373.735600
  0
VERTEX
  8
ViaHoles
 42
1.000000
 10
330.930250
 20
373.735600
  0
SEQEND
  0
POLYLINE
  8
ViaHoles
 66
1
 10
0.000000
 20
0.000000
 30
0.000000
 40
0.317500
 41
0.317500
 70
1
  0
VERTEX
  8
ViaHoles
 42
1.000000
 10
327.818750
 20
370.433600
  0
VERTEX
  8
ViaHoles
 42
1.000000
 10
328.136250
 20
370.433600
  0
SEQEND
  0
POLYLINE
  8
Layer10
 66
1
 10
0.000000
 20
0.000000
 30
0.000000
 40
0.381000
 41
0.381000
  0
VERTEX
  8
Layer10
 10
344.589100
 20
335.102200
  0
VERTEX
  8
Layer10
 10
344.589100
 20
375.589800
  0
VERTEX
  8
Layer10
 10
461.556100
 20
375.589800
  0
VERTEX
  8
Layer10
 10
461.556100
 20
335.102200
  0
VERTEX
  8
Layer10
 10
344.589100
 20
335.102200
  0
SEQEND
  0
POLYLINE
  8
Layer10
 66
1
 10
0.000000
 20
0.000000
 30
0.000000
 40
0.381000
 41
0.381000
  0
VERTEX
  8
Layer10
 10
351.574100
 20
346.583000
  0
VERTEX
  8
Layer10
 10
344.589100
 20
346.583000
  0
SEQEND
  0
POLYLINE
  8
Layer10
 66
1
 10
0.000000
 20
0.000000
 30
0.000000
 40
0.381000
 41
0.381000
  0
VERTEX
  8
Layer10
 10
351.574100
 20
346.583000
  0
VERTEX
  8
Layer10
 10
351.574100
 20
335.102200
  0
SEQEND
  0
POLYLINE
  8
Layer10
 66
1
 10
0.000000
 20
0.000000
 30
0.000000
 40
0.381000
 41
0.381000
  0
VERTEX
  8
Layer10
 10
381.952500
 20
359.511600
  0
VERTEX
  8
Layer10
 10
370.522500
 20
359.511600
  0
VERTEX
  8
Layer10
 10
370.522500
 20
364.591600
  0
VERTEX
  8
Layer10
 10
381.952500
 20
364.591600
  0
VERTEX
  8
Layer10
 10
381.952500
 20
362.686600
  0
VERTEX
  8
Layer10
 10
381.317500
 20
362.051600
  0
VERTEX
  8
Layer10
 10
381.952500
 20
361.416600
  0
VERTEX
  8
Layer10
 10
381.952500
 20
359.511600
  0
SEQEND
  0
POLYLINE
  8
Layer10
 66
1
 10
0.000000
 20
0.000000
 30
0.000000
 40
0.381000
 41
0.381000
  0
VERTEX
  8
Layer10
 10
425.843700
 20
372.846600
  0
VERTEX
  8
Layer10
 10
421.855900
 20
372.846600
  0
SEQEND
  0
POLYLINE
  8
Layer10
 66
1
 10
0.000000
 20
0.000000
 30
0.000000
 40
0.381000
 41
0.381000
  0
VERTEX
  8
Layer10
 10
402.856700
 20
372.846600
  0
VERTEX
  8
Layer10
 10
406.869900
 20
372.846600
  0
SEQEND
  0
POLYLINE
  8
Layer10
 66
1
 10
0.000000
 20
0.000000
 30
0.000000
 40
0.381000
 41
0.381000
  0
VERTEX
  8
Layer10
 10
421.855900
 20
368.858800
  0
VERTEX
  8
Layer10
 10
421.855900
 20
372.846600
  0
VERTEX
  8
Layer10
 10
421.855900
 20
376.834400
  0
VERTEX
  8
Layer10
 10
406.869900
 20
376.834400
  0
VERTEX
  8
Layer10
 10
406.869900
 20
368.858800
  0
VERTEX
  8
Layer10
 10
421.855900
 20
368.858800
  0
SEQEND
  0
POLYLINE
  8
Layer10
 66
1
 10
0.000000
 20
0.000000
 30
0.000000
 40
0.381000
 41
0.381000
  0
VERTEX
  8
Layer10
 10
423.100500
 20
370.306600
  0
VERTEX
  8
Layer10
 10
423.100500
 20
371.576600
  0
SEQEND
  0
POLYLINE
  8
Layer10
 66
1
 10
0.000000
 20
0.000000
 30
0.000000
 40
0.381000
 41
0.381000
  0
VERTEX
  8
Layer10
 10
423.735500
 20
370.941600
  0
VERTEX
  8
Layer10
 10
422.465500
 20
370.941600
  0
SEQEND
  0
POLYLINE
  8
Layer10
 66
1
 10
0.000000
 20
0.000000
 30
0.000000
 40
0.381000
 41
0.381000
  0
VERTEX
  8
Layer10
 10
374.637300
 20
372.846600
  0
VERTEX
  8
Layer10
 10
378.625100
 20
372.846600
  0
SEQEND
  0
POLYLINE
  8
Layer10
 66
1
 10
0.000000
 20
0.000000
 30
0.000000
 40
0.381000
 41
0.381000
  0
VERTEX
  8
Layer10
 10
397.624300
 20
372.846600
  0
VERTEX
  8
Layer10
 10
393.611100
 20
372.846600
  0
SEQEND
  0
POLYLINE
  8
Layer10
 66
1
 10
0.000000
 20
0.000000
 30
0.000000
 40
0.381000
 41
0.381000
  0
VERTEX
  8
Layer10
 10
378.625100
 20
376.834400
  0
VERTEX
  8
Layer10
 10
378.625100
 20
372.846600
  0
VERTEX
  8
Layer10
 10
378.625100
 20
368.858800
  0
VERTEX
  8
Layer10
 10
393.611100
 20
368.858800
  0
VERTEX
  8
Layer10
 10
393.611100
 20
376.834400
  0
VERTEX
  8
Layer10
 10
378.625100
 20
376.834400
  0
SEQEND
  0
POLYLINE
  8
Layer10
 66
1
 10
0.000000
 20
0.000000
 30
0.000000
 40
0.381000
 41
0.381000
  0
VERTEX
  8
Layer10
 10
377.380500
 20
375.386600
  0
VERTEX
  8
Layer10
 10
377.380500
 20
374.116600
  0
SEQEND
  0
POLYLINE
  8
Layer10
 66
1
 10
0.000000
 20
0.000000
 30
0.000000
 40
0.381000
 41
0.381000
  0
VERTEX
  8
Layer10
 10
376.745500
 20
374.751600
  0
VERTEX
  8
Layer10
 10
378.015500
 20
374.751600
  0
SEQEND
  0
POLYLINE
  8
Layer10
 66
1
 10
0.000000
 20
0.000000
 30
0.000000
 40
0.381000
 41
0.381000
 70
1
  0
VERTEX
  8
Layer10
 42
1.000000
 10
359.600500
 20
373.481600
  0
VERTEX
  8
Layer10
 42
1.000000
 10
365.950500
 20
373.481600
  0
SEQEND
  0
POLYLINE
  8
Layer10
 66
1
 10
0.000000
 20
0.000000
 30
0.000000
 40
0.381000
 41
0.381000
  0
VERTEX
  8
Layer10
 10
396.100300
 20
363.728000
  0
VERTEX
  8
Layer10
 10
397.090900
 20
362.712000
  0
VERTEX
  8
Layer10
 10
417.080700
 20
362.712000
  0
VERTEX
  8
Layer10
 10
417.080700
 20
367.715800
  0
VERTEX
  8
Layer10
 10
396.100300
 20
367.715800
  0
VERTEX
  8
Layer10
 10
396.100300
 20
363.728000
  0
SEQEND
  0
POLYLINE
  8
Layer10
 66
1
 10
0.000000
 20
0.000000
 30
0.000000
 40
0.381000
 41
0.381000
  0
VERTEX
  8
Layer10
 10
334.403700
 20
374.116600
  0
VERTEX
  8
Layer10
 10
344.385900
 20
374.116600
  0
VERTEX
  8
Layer10
 10
344.385900
 20
376.097800
  0
VERTEX
  8
Layer10
 10
335.394300
 20
376.123200
  0
VERTEX
  8
Layer10
 10
334.403700
 20
375.107200
  0
VERTEX
  8
Layer10
 10
334.403700
 20
374.116600
  0
SEQEND
  0
POLYLINE
  8
Layer10
 66
1
 10
0.000000
 20
0.000000
 30
0.000000
 40
0.381000
 41
0.381000
  0
VERTEX
  8
Layer10
 10
334.403700
 20
372.110000
  0
VERTEX
  8
Layer10
 10
344.385900
 20
372.110000
  0
VERTEX
  8
Layer10
 10
344.385900
 20
374.091200
  0
VERTEX
  8
Layer10
 10
335.394300
 20
374.116600
  0
VERTEX
  8
Layer10
 10
334.403700
 20
373.100600
  0
VERTEX
  8
Layer10
 10
334.403700
 20
372.110000
  0
SEQEND
  0
POLYLINE
  8
Layer10
 66
1
 10
0.000000
 20
0.000000
 30
0.000000
 40
0.381000
 41
0.381000
  0
VERTEX
  8
Layer10
 10
374.840500
 20
369.671600
  0
VERTEX
  8
Layer10
 10
374.840500
 20
367.131600
  0
VERTEX
  8
Layer10
 10
372.300500
 20
367.131600
  0
VERTEX
  8
Layer10
 10
372.300500
 20
369.671600
  0
VERTEX
  8
Layer10
 10
374.840500
 20
369.671600
  0
SEQEND
  0
POLYLINE
  8
Layer10
 66
1
 10
0.000000
 20
0.000000
 30
0.000000
 40
0.381000
 41
0.381000
  0
VERTEX
  8
Layer10
 10
433.006500
 20
374.497600
  0
VERTEX
  8
Layer10
 10
430.974500
 20
374.497600
  0
VERTEX
  8
Layer10
 10
430.974500
 20
372.465600
  0
VERTEX
  8
Layer10
 10
433.006500
 20
372.465600
  0
VERTEX
  8
Layer10
 10
433.006500
 20
374.497600
  0
SEQEND
  0
POLYLINE
  8
Layer10
 66
1
 10
0.000000
 20
0.000000
 30
0.000000
 40
0.381000
 41
0.381000
  0
VERTEX
  8
Layer10
 10
399.351500
 20
359.892600
  0
VERTEX
  8
Layer10
 10
397.319500
 20
359.892600
  0
VERTEX
  8
Layer10
 10
397.319500
 20
357.860600
  0
VERTEX
  8
Layer10
 10
399.351500
 20
357.860600
  0
VERTEX
  8
Layer10
 10
399.351500
 20
359.892600
  0
SEQEND
  0
POLYLINE
  8
Layer10
 66
1
 10
0.000000
 20
0.000000
 30
0.000000
 40
0.381000
 41
0.381000
  0
VERTEX
  8
Layer10
 10
443.166500
 20
337.667600
  0
VERTEX
  8
Layer10
 10
441.134500
 20
337.667600
  0
VERTEX
  8
Layer10
 10
441.134500
 20
335.635600
  0
VERTEX
  8
Layer10
 10
443.166500
 20
335.635600
  0
VERTEX
  8
Layer10
 10
443.166500
 20
337.667600
  0
SEQEND
  0
POLYLINE
  8
Layer10
 66
1
 10
0.000000
 20
0.000000
 30
0.000000
 40
0.381000
 41
0.381000
  0
VERTEX
  8
Layer10
 10
424.116500
 20
356.717600
  0
VERTEX
  8
Layer10
 10
422.084500
 20
356.717600
  0
VERTEX
  8
Layer10
 10
422.084500
 20
354.685600
  0
VERTEX
  8
Layer10
 10
424.116500
 20
354.685600
  0
VERTEX
  8
Layer10
 10
424.116500
 20
356.717600
  0
SEQEND
  0
POLYLINE
  8
Layer10
 66
1
 10
0.000000
 20
0.000000
 30
0.000000
 40
0.381000
 41
0.381000
  0
VERTEX
  8
Layer10
 10
426.021500
 20
363.067600
  0
VERTEX
  8
Layer10
 10
423.989500
 20
363.067600
  0
VERTEX
  8
Layer10
 10
423.989500
 20
361.035600
  0
VERTEX
  8
Layer10
 10
426.021500
 20
361.035600
  0
VERTEX
  8
Layer10
 10
426.021500
 20
363.067600
  0
SEQEND
  0
POLYLINE
  8
Layer10
 66
1
 10
0.000000
 20
0.000000
 30
0.000000
 40
0.381000
 41
0.381000
  0
VERTEX
  8
Layer10
 10
438.086500
 20
374.497600
  0
VERTEX
  8
Layer10
 10
436.054500
 20
374.497600
  0
VERTEX
  8
Layer10
 10
436.054500
 20
372.465600
  0
VERTEX
  8
Layer10
 10
438.086500
 20
372.465600
  0
VERTEX
  8
Layer10
 10
438.086500
 20
374.497600
  0
SEQEND
  0
POLYLINE
  8
Layer10
 66
1
 10
0.000000
 20
0.000000
 30
0.000000
 40
0.381000
 41
0.381000
  0
VERTEX
  8
Layer10
 10
423.481500
 20
363.067600
  0
VERTEX
  8
Layer10
 10
421.449500
 20
363.067600
  0
VERTEX
  8
Layer10
 10
421.449500
 20
361.035600
  0
VERTEX
  8
Layer10
 10
423.481500
 20
361.035600
  0
VERTEX
  8
Layer10
 10
423.481500
 20
363.067600
  0
SEQEND
  0
POLYLINE
  8
Layer10
 66
1
 10
0.000000
 20
0.000000
 30
0.000000
 40
0.381000
 41
0.381000
  0
VERTEX
  8
Layer10
 10
424.116500
 20
346.557600
  0
VERTEX
  8
Layer10
 10
422.084500
 20
346.557600
  0
VERTEX
  8
Layer10
 10
422.084500
 20
344.525600
  0
VERTEX
  8
Layer10
 10
424.116500
 20
344.525600
  0
VERTEX
  8
Layer10
 10
424.116500
 20
346.557600
  0
SEQEND
  0
POLYLINE
  8
Layer10
 66
1
 10
0.000000
 20
0.000000
 30
0.000000
 40
0.381000
 41
0.381000
  0
VERTEX
  8
Layer10
 10
450.151500
 20
361.162600
  0
VERTEX
  8
Layer10
 10
448.119500
 20
361.162600
  0
VERTEX
  8
Layer10
 10
448.119500
 20
359.130600
  0
VERTEX
  8
Layer10
 10
450.151500
 20
359.130600
  0
VERTEX
  8
Layer10
 10
450.151500
 20
361.162600
  0
SEQEND
  0
POLYLINE
  8
Layer10
 66
1
 10
0.000000
 20
0.000000
 30
0.000000
 40
0.381000
 41
0.381000
  0
VERTEX
  8
Layer10
 10
457.009500
 20
361.162600
  0
VERTEX
  8
Layer10
 10
457.009500
 20
359.130600
  0
VERTEX
  8
Layer10
 10
459.041500
 20
359.130600
  0
VERTEX
  8
Layer10
 10
459.041500
 20
361.162600
  0
VERTEX
  8
Layer10
 10
457.009500
 20
361.162600
  0
SEQEND
  0
POLYLINE
  8
Layer10
 66
1
 10
0.000000
 20
0.000000
 30
0.000000
 40
0.381000
 41
0.381000
  0
VERTEX
  8
Layer10
 10
366.966500
 20
352.780600
  0
VERTEX
  8
Layer10
 10
366.966500
 20
354.812600
  0
VERTEX
  8
Layer10
 10
364.934500
 20
354.812600
  0
VERTEX
  8
Layer10
 10
364.934500
 20
352.780600
  0
VERTEX
  8
Layer10
 10
366.966500
 20
352.780600
  0
SEQEND
  0
POLYLINE
  8
Layer10
 66
1
 10
0.000000
 20
0.000000
 30
0.000000
 40
0.381000
 41
0.381000
  0
VERTEX
  8
Layer10
 10
360.616500
 20
352.780600
  0
VERTEX
  8
Layer10
 10
360.616500
 20
354.812600
  0
VERTEX
  8
Layer10
 10
358.584500
 20
354.812600
  0
VERTEX
  8
Layer10
 10
358.584500
 20
352.780600
  0
VERTEX
  8
Layer10
 10
360.616500
 20
352.780600
  0
SEQEND
  0
POLYLINE
  8
Layer10
 66
1
 10
0.000000
 20
0.000000
 30
0.000000
 40
0.381000
 41
0.381000
  0
VERTEX
  8
Layer10
 10
360.616500
 20
355.320600
  0
VERTEX
  8
Layer10
 10
360.616500
 20
357.352600
  0
VERTEX
  8
Layer10
 10
358.584500
 20
357.352600
  0
VERTEX
  8
Layer10
 10
358.584500
 20
355.320600
  0
VERTEX
  8
Layer10
 10
360.616500
 20
355.320600
  0
SEQEND
  0
POLYLINE
  8
Layer10
 66
1
 10
0.000000
 20
0.000000
 30
0.000000
 40
0.381000
 41
0.381000
  0
VERTEX
  8
Layer10
 10
377.761500
 20
350.240600
  0
VERTEX
  8
Layer10
 10
377.761500
 20
352.272600
  0
VERTEX
  8
Layer10
 10
375.729500
 20
352.272600
  0
VERTEX
  8
Layer10
 10
375.729500
 20
350.240600
  0
VERTEX
  8
Layer10
 10
377.761500
 20
350.240600
  0
SEQEND
  0
POLYLINE
  8
Layer10
 66
1
 10
0.000000
 20
0.000000
 30
0.000000
 40
0.381000
 41
0.381000
  0
VERTEX
  8
Layer10
 10
439.991500
 20
357.860600
  0
VERTEX
  8
Layer10
 10
439.991500
 20
359.892600
  0
VERTEX
  8
Layer10
 10
437.959500
 20
359.892600
  0
VERTEX
  8
Layer10
 10
437.959500
 20
357.860600
  0
VERTEX
  8
Layer10
 10
439.991500
 20
357.860600
  0
SEQEND
  0
POLYLINE
  8
Layer10
 66
1
 10
0.000000
 20
0.000000
 30
0.000000
 40
0.381000
 41
0.381000
  0
VERTEX
  8
Layer10
 10
450.151500
 20
354.050600
  0
VERTEX
  8
Layer10
 10
450.151500
 20
356.082600
  0
VERTEX
  8
Layer10
 10
448.119500
 20
356.082600
  0
VERTEX
  8
Layer10
 10
448.119500
 20
354.050600
  0
VERTEX
  8
Layer10
 10
450.151500
 20
354.050600
  0
SEQEND
  0
POLYLINE
  8
Layer10
 66
1
 10
0.000000
 20
0.000000
 30
0.000000
 40
0.381000
 41
0.381000
  0
VERTEX
  8
Layer10
 10
450.151500
 20
351.510600
  0
VERTEX
  8
Layer10
 10
450.151500
 20
353.542600
  0
VERTEX
  8
Layer10
 10
448.119500
 20
353.542600
  0
VERTEX
  8
Layer10
 10
448.119500
 20
351.510600
  0
VERTEX
  8
Layer10
 10
450.151500
 20
351.510600
  0
SEQEND
  0
POLYLINE
  8
Layer10
 66
1
 10
0.000000
 20
0.000000
 30
0.000000
 40
0.381000
 41
0.381000
  0
VERTEX
  8
Layer10
 10
450.151500
 20
348.970600
  0
VERTEX
  8
Layer10
 10
450.151500
 20
351.002600
  0
VERTEX
  8
Layer10
 10
448.119500
 20
351.002600
  0
VERTEX
  8
Layer10
 10
448.119500
 20
348.970600
  0
VERTEX
  8
Layer10
 10
450.151500
 20
348.970600
  0
SEQEND
  0
POLYLINE
  8
Layer10
 66
1
 10
0.000000
 20
0.000000
 30
0.000000
 40
0.381000
 41
0.381000
  0
VERTEX
  8
Layer10
 10
366.966500
 20
356.590600
  0
VERTEX
  8
Layer10
 10
366.966500
 20
358.622600
  0
VERTEX
  8
Layer10
 10
364.934500
 20
358.622600
  0
VERTEX
  8
Layer10
 10
364.934500
 20
356.590600
  0
VERTEX
  8
Layer10
 10
366.966500
 20
356.590600
  0
SEQEND
  0
POLYLINE
  8
Layer10
 66
1
 10
0.000000
 20
0.000000
 30
0.000000
 40
0.381000
 41
0.381000
  0
VERTEX
  8
Layer10
 10
432.879500
 20
359.892600
  0
VERTEX
  8
Layer10
 10
432.879500
 20
357.860600
  0
VERTEX
  8
Layer10
 10
434.911500
 20
357.860600
  0
VERTEX
  8
Layer10
 10
434.911500
 20
359.892600
  0
VERTEX
  8
Layer10
 10
432.879500
 20
359.892600
  0
SEQEND
  0
POLYLINE
  8
Layer10
 66
1
 10
0.000000
 20
0.000000
 30
0.000000
 40
0.381000
 41
0.381000
  0
VERTEX
  8
Layer10
 10
448.119500
 20
373.862600
  0
VERTEX
  8
Layer10
 10
448.119500
 20
371.830600
  0
VERTEX
  8
Layer10
 10
450.151500
 20
371.830600
  0
VERTEX
  8
Layer10
 10
450.151500
 20
373.862600
  0
VERTEX
  8
Layer10
 10
448.119500
 20
373.862600
  0
SEQEND
  0
POLYLINE
  8
Layer10
 66
1
 10
0.000000
 20
0.000000
 30
0.000000
 40
0.381000
 41
0.381000
  0
VERTEX
  8
Layer10
 10
338.264500
 20
339.572600
  0
VERTEX
  8
Layer10
 10
338.264500
 20
337.540600
  0
VERTEX
  8
Layer10
 10
340.296500
 20
337.540600
  0
VERTEX
  8
Layer10
 10
340.296500
 20
339.572600
  0
VERTEX
  8
Layer10
 10
338.264500
 20
339.572600
  0
SEQEND
  0
POLYLINE
  8
Layer10
 66
1
 10
0.000000
 20
0.000000
 30
0.000000
 40
0.381000
 41
0.381000
  0
VERTEX
  8
Layer10
 10
418.909500
 20
343.382600
  0
VERTEX
  8
Layer10
 10
418.909500
 20
341.350600
  0
VERTEX
  8
Layer10
 10
420.941500
 20
341.350600
  0
VERTEX
  8
Layer10
 10
420.941500
 20
343.382600
  0
VERTEX
  8
Layer10
 10
418.909500
 20
343.382600
  0
SEQEND
  0
POLYLINE
  8
Layer10
 66
1
 10
0.000000
 20
0.000000
 30
0.000000
 40
0.381000
 41
0.381000
  0
VERTEX
  8
Layer10
 10
390.969500
 20
364.972600
  0
VERTEX
  8
Layer10
 10
390.969500
 20
362.940600
  0
VERTEX
  8
Layer10
 10
393.001500
 20
362.940600
  0
VERTEX
  8
Layer10
 10
393.001500
 20
364.972600
  0
VERTEX
  8
Layer10
 10
390.969500
 20
364.972600
  0
SEQEND
  0
POLYLINE
  8
Layer10
 66
1
 10
0.000000
 20
0.000000
 30
0.000000
 40
0.381000
 41
0.381000
  0
VERTEX
  8
Layer10
 10
413.194500
 20
340.842600
  0
VERTEX
  8
Layer10
 10
413.194500
 20
338.810600
  0
VERTEX
  8
Layer10
 10
415.226500
 20
338.810600
  0
VERTEX
  8
Layer10
 10
415.226500
 20
340.842600
  0
VERTEX
  8
Layer10
 10
413.194500
 20
340.842600
  0
SEQEND
  0
POLYLINE
  8
Layer10
 66
1
 10
0.000000
 20
0.000000
 30
0.000000
 40
0.381000
 41
0.381000
  0
VERTEX
  8
Layer10
 10
427.799500
 20
343.382600
  0
VERTEX
  8
Layer10
 10
427.799500
 20
341.350600
  0
VERTEX
  8
Layer10
 10
429.831500
 20
341.350600
  0
VERTEX
  8
Layer10
 10
429.831500
 20
343.382600
  0
VERTEX
  8
Layer10
 10
427.799500
 20
343.382600
  0
SEQEND
  0
POLYLINE
  8
Layer10
 66
1
 10
0.000000
 20
0.000000
 30
0.000000
 40
0.381000
 41
0.381000
  0
VERTEX
  8
Layer10
 10
420.814500
 20
350.367600
  0
VERTEX
  8
Layer10
 10
420.814500
 20
348.335600
  0
VERTEX
  8
Layer10
 10
422.846500
 20
348.335600
  0
VERTEX
  8
Layer10
 10
422.846500
 20
350.367600
  0
VERTEX
  8
Layer10
 10
420.814500
 20
350.367600
  0
SEQEND
  0
POLYLINE
  8
Layer10
 66
1
 10
0.000000
 20
0.000000
 30
0.000000
 40
0.381000
 41
0.381000
  0
VERTEX
  8
Layer10
 10
453.834500
 20
342.112600
  0
VERTEX
  8
Layer10
 10
453.834500
 20
340.080600
  0
VERTEX
  8
Layer10
 10
455.866500
 20
340.080600
  0
VERTEX
  8
Layer10
 10
455.866500
 20
342.112600
  0
VERTEX
  8
Layer10
 10
453.834500
 20
342.112600
  0
SEQEND
  0
POLYLINE
  8
Layer10
 66
1
 10
0.000000
 20
0.000000
 30
0.000000
 40
0.381000
 41
0.381000
  0
VERTEX
  8
Layer10
 10
448.754500
 20
342.112600
  0
VERTEX
  8
Layer10
 10
448.754500
 20
340.080600
  0
VERTEX
  8
Layer10
 10
450.786500
 20
340.080600
  0
VERTEX
  8
Layer10
 10
450.786500
 20
342.112600
  0
VERTEX
  8
Layer10
 10
448.754500
 20
342.112600
  0
SEQEND
  0
POLYLINE
  8
Layer10
 66
1
 10
0.000000
 20
0.000000
 30
0.000000
 40
0.381000
 41
0.381000
  0
VERTEX
  8
Layer10
 10
453.834500
 20
344.652600
  0
VERTEX
  8
Layer10
 10
453.834500
 20
342.620600
  0
VERTEX
  8
Layer10
 10
455.866500
 20
342.620600
  0
VERTEX
  8
Layer10
 10
455.866500
 20
344.652600
  0
VERTEX
  8
Layer10
 10
453.834500
 20
344.652600
  0
SEQEND
  0
POLYLINE
  8
Layer10
 66
1
 10
0.000000
 20
0.000000
 30
0.000000
 40
0.381000
 41
0.381000
  0
VERTEX
  8
Layer10
 10
442.404500
 20
345.922600
  0
VERTEX
  8
Layer10
 10
442.404500
 20
343.890600
  0
VERTEX
  8
Layer10
 10
444.436500
 20
343.890600
  0
VERTEX
  8
Layer10
 10
444.436500
 20
345.922600
  0
VERTEX
  8
Layer10
 10
442.404500
 20
345.922600
  0
SEQEND
  0
POLYLINE
  8
Layer10
 66
1
 10
0.000000
 20
0.000000
 30
0.000000
 40
0.381000
 41
0.381000
  0
VERTEX
  8
Layer10
 10
453.834500
 20
356.082600
  0
VERTEX
  8
Layer10
 10
453.834500
 20
354.050600
  0
VERTEX
  8
Layer10
 10
455.866500
 20
354.050600
  0
VERTEX
  8
Layer10
 10
455.866500
 20
356.082600
  0
VERTEX
  8
Layer10
 10
453.834500
 20
356.082600
  0
SEQEND
  0
POLYLINE
  8
Layer10
 66
1
 10
0.000000
 20
0.000000
 30
0.000000
 40
0.381000
 41
0.381000
  0
VERTEX
  8
Layer10
 10
372.554500
 20
356.717600
  0
VERTEX
  8
Layer10
 10
372.554500
 20
354.685600
  0
VERTEX
  8
Layer10
 10
374.586500
 20
354.685600
  0
VERTEX
  8
Layer10
 10
374.586500
 20
356.717600
  0
VERTEX
  8
Layer10
 10
372.554500
 20
356.717600
  0
SEQEND
  0
POLYLINE
  8
Layer10
 66
1
 10
0.000000
 20
0.000000
 30
0.000000
 40
0.381000
 41
0.381000
  0
VERTEX
  8
Layer10
 10
383.400300
 20
364.998000
  0
VERTEX
  8
Layer10
 10
383.400300
 20
362.966000
  0
VERTEX
  8
Layer10
 10
385.432300
 20
362.966000
  0
VERTEX
  8
Layer10
 10
385.432300
 20
364.998000
  0
VERTEX
  8
Layer10
 10
383.400300
 20
364.998000
  0
SEQEND
  0
POLYLINE
  8
Layer10
 66
1
 10
0.000000
 20
0.000000
 30
0.000000
 40
0.381000
 41
0.381000
  0
VERTEX
  8
Layer10
 10
368.134900
 20
373.202200
  0
VERTEX
  8
Layer10
 10
368.134900
 20
371.170200
  0
VERTEX
  8
Layer10
 10
370.166900
 20
371.170200
  0
VERTEX
  8
Layer10
 10
370.166900
 20
373.202200
  0
VERTEX
  8
Layer10
 10
368.134900
 20
373.202200
  0
SEQEND
  0
POLYLINE
  8
Layer10
 66
1
 10
0.000000
 20
0.000000
 30
0.000000
 40
0.381000
 41
0.381000
  0
VERTEX
  8
Layer10
 10
353.885500
 20
375.259600
  0
VERTEX
  8
Layer10
 10
353.885500
 20
373.227600
  0
VERTEX
  8
Layer10
 10
355.917500
 20
373.227600
  0
VERTEX
  8
Layer10
 10
355.917500
 20
375.259600
  0
VERTEX
  8
Layer10
 10
353.885500
 20
375.259600
  0
SEQEND
  0
TEXT
 39
0.127000
  8
Layer10
 10
403.212300
 20
354.761800
 30
0.000000
 40
0.635000
 72
5
 11
404.905633
 21
354.761800
 31
0.000000
  1
IC2
  0
TEXT
 39
0.127000
  8
Layer10
 10
375.399300
 20
361.746800
 30
0.000000
 40
0.635000
 72
5
 11
377.092633
 21
361.746800
 31
0.000000
  1
IC8
  0
TEXT
 39
0.127000
  8
Layer10
 10
413.372300
 20
372.541800
 30
0.000000
 40
0.635000
 72
5
 11
415.065633
 21
372.541800
 31
0.000000
  1
C18
  0
TEXT
 39
0.127000
  8
Layer10
 10
385.432300
 20
372.541800
 30
0.000000
 40
0.635000
 72
5
 11
387.125633
 21
372.541800
 31
0.000000
  1
C19
  0
TEXT
 39
0.127000
  8
Layer10
 10
362.470700
 20
374.015000
 30
0.000000
 40
0.635000
 72
5
 11
362.470700
 21
372.956667
 31
0.000000
 50
270.000000
  1
L1
  0
TEXT
 39
0.127000
  8
Layer10
 10
405.752300
 20
364.921800
 30
0.000000
 40
0.635000
 72
5
 11
407.445633
 21
364.921800
 31
0.000000
  1
PL1
  0
TEXT
 39
0.127000
  8
Layer10
 10
338.543900
 20
374.802400
 30
0.000000
 40
0.635000
 72
5
 11
340.237233
 21
374.802400
 31
0.000000
  1
PL2
  0
TEXT
 39
0.127000
  8
Layer10
 10
338.543900
 20
372.795800
 30
0.000000
 40
0.635000
 72
5
 11
340.237233
 21
372.795800
 31
0.000000
  1
PL4
  0
TEXT
 39
0.127000
  8
Layer10
 10
373.265700
 20
369.265200
 30
0.000000
 40
0.635000
 72
5
 11
373.265700
 21
367.571867
 31
0.000000
 50
270.000000
  1
TP1
  0
TEXT
 39
0.127000
  8
Layer10
 10
431.685700
 20
374.345200
 30
0.000000
 40
0.635000
 72
5
 11
431.685700
 21
372.651867
 31
0.000000
 50
270.000000
  1
TP2
  0
TEXT
 39
0.127000
  8
Layer10
 10
398.030700
 20
359.740200
 30
0.000000
 40
0.635000
 72
5
 11
398.030700
 21
358.046867
 31
0.000000
 50
270.000000
  1
TP3
  0
TEXT
 39
0.127000
  8
Layer10
 10
441.845700
 20
337.515200
 30
0.000000
 40
0.635000
 72
5
 11
441.845700
 21
335.821867
 31
0.000000
 50
270.000000
  1
TP4
  0
TEXT
 39
0.127000
  8
Layer10
 10
422.795700
 20
356.565200
 30
0.000000
 40
0.635000
 72
5
 11
422.795700
 21
354.871867
 31
0.000000
 50
270.000000
  1
TP5
  0
TEXT
 39
0.127000
  8
Layer10
 10
424.700700
 20
362.915200
 30
0.000000
 40
0.635000
 72
5
 11
424.700700
 21
361.221867
 31
0.000000
 50
270.000000
  1
TP6
  0
TEXT
 39
0.127000
  8
Layer10
 10
436.765700
 20
374.345200
 30
0.000000
 40
0.635000
 72
5
 11
436.765700
 21
372.651867
 31
0.000000
 50
270.000000
  1
TP7
  0
TEXT
 39
0.127000
  8
Layer10
 10
422.160700
 20
362.915200
 30
0.000000
 40
0.635000
 72
5
 11
422.160700
 21
361.221867
 31
0.000000
 50
270.000000
  1
TP8
  0
TEXT
 39
0.127000
  8
Layer10
 10
422.795700
 20
346.405200
 30
0.000000
 40
0.635000
 72
5
 11
422.795700
 21
344.711867
 31
0.000000
 50
270.000000
  1
TP9
  0
TEXT
 39
0.127000
  8
Layer10
 10
448.830700
 20
361.315000
 30
0.000000
 40
0.635000
 72
5
 11
448.830700
 21
358.986667
 31
0.000000
 50
270.000000
  1
TP10
  0
TEXT
 39
0.127000
  8
Layer10
 10
456.857100
 20
359.841800
 30
0.000000
 40
0.635000
 72
5
 11
459.185433
 21
359.841800
 31
0.000000
  1
TP11
  0
TEXT
 39
0.127000
  8
Layer10
 10
364.782100
 20
353.491800
 30
0.000000
 40
0.635000
 72
5
 11
367.110433
 21
353.491800
 31
0.000000
  1
TP12
  0
TEXT
 39
0.127000
  8
Layer10
 10
358.432100
 20
353.491800
 30
0.000000
 40
0.635000
 72
5
 11
360.760433
 21
353.491800
 31
0.000000
  1
TP13
  0
TEXT
 39
0.127000
  8
Layer10
 10
358.432100
 20
356.031800
 30
0.000000
 40
0.635000
 72
5
 11
360.760433
 21
356.031800
 31
0.000000
  1
TP14
  0
TEXT
 39
0.127000
  8
Layer10
 10
375.577100
 20
350.951800
 30
0.000000
 40
0.635000
 72
5
 11
377.905433
 21
350.951800
 31
0.000000
  1
TP15
  0
TEXT
 39
0.127000
  8
Layer10
 10
437.807100
 20
358.571800
 30
0.000000
 40
0.635000
 72
5
 11
440.135433
 21
358.571800
 31
0.000000
  1
TP16
  0
TEXT
 39
0.127000
  8
Layer10
 10
447.967100
 20
354.761800
 30
0.000000
 40
0.635000
 72
5
 11
450.295433
 21
354.761800
 31
0.000000
  1
TP17
  0
TEXT
 39
0.127000
  8
Layer10
 10
447.967100
 20
352.221800
 30
0.000000
 40
0.635000
 72
5
 11
450.295433
 21
352.221800
 31
0.000000
  1
TP18
  0
TEXT
 39
0.127000
  8
Layer10
 10
447.967100
 20
349.681800
 30
0.000000
 40
0.635000
 72
5
 11
450.295433
 21
349.681800
 31
0.000000
  1
TP19
  0
TEXT
 39
0.127000
  8
Layer10
 10
364.782100
 20
357.301800
 30
0.000000
 40
0.635000
 72
5
 11
367.110433
 21
357.301800
 31
0.000000
  1
TP20
  0
TEXT
 39
0.127000
  8
Layer10
 10
432.727100
 20
358.571800
 30
0.000000
 40
0.635000
 72
5
 11
435.055433
 21
358.571800
 31
0.000000
  1
TP21
  0
TEXT
 39
0.127000
  8
Layer10
 10
447.967100
 20
372.541800
 30
0.000000
 40
0.635000
 72
5
 11
450.295433
 21
372.541800
 31
0.000000
  1
TP22
  0
TEXT
 39
0.127000
  8
Layer10
 10
338.112100
 20
338.251800
 30
0.000000
 40
0.635000
 72
5
 11
340.440433
 21
338.251800
 31
0.000000
  1
TP23
  0
TEXT
 39
0.127000
  8
Layer10
 10
418.757100
 20
342.061800
 30
0.000000
 40
0.635000
 72
5
 11
421.085433
 21
342.061800
 31
0.000000
  1
TP24
  0
TEXT
 39
0.127000
  8
Layer10
 10
390.817100
 20
363.651800
 30
0.000000
 40
0.635000
 72
5
 11
393.145433
 21
363.651800
 31
0.000000
  1
TP25
  0
TEXT
 39
0.127000
  8
Layer10
 10
413.042100
 20
339.521800
 30
0.000000
 40
0.635000
 72
5
 11
415.370433
 21
339.521800
 31
0.000000
  1
TP26
  0
TEXT
 39
0.127000
  8
Layer10
 10
427.647100
 20
342.061800
 30
0.000000
 40
0.635000
 72
5
 11
429.975433
 21
342.061800
 31
0.000000
  1
TP27
  0
TEXT
 39
0.127000
  8
Layer10
 10
420.662100
 20
349.046800
 30
0.000000
 40
0.635000
 72
5
 11
422.990433
 21
349.046800
 31
0.000000
  1
TP28
  0
TEXT
 39
0.127000
  8
Layer10
 10
453.682100
 20
340.791800
 30
0.000000
 40
0.635000
 72
5
 11
456.010433
 21
340.791800
 31
0.000000
  1
TP29
  0
TEXT
 39
0.127000
  8
Layer10
 10
448.602100
 20
340.791800
 30
0.000000
 40
0.635000
 72
5
 11
450.930433
 21
340.791800
 31
0.000000
  1
TP30
  0
TEXT
 39
0.127000
  8
Layer10
 10
453.682100
 20
343.331800
 30
0.000000
 40
0.635000
 72
5
 11
456.010433
 21
343.331800
 31
0.000000
  1
TP31
  0
TEXT
 39
0.127000
  8
Layer10
 10
442.252100
 20
344.601800
 30
0.000000
 40
0.635000
 72
5
 11
444.580433
 21
344.601800
 31
0.000000
  1
TP32
  0
TEXT
 39
0.127000
  8
Layer10
 10
453.682100
 20
354.761800
 30
0.000000
 40
0.635000
 72
5
 11
456.010433
 21
354.761800
 31
0.000000
  1
TP33
  0
TEXT
 39
0.127000
  8
Layer10
 10
372.402100
 20
355.396800
 30
0.000000
 40
0.635000
 72
5
 11
374.730433
 21
355.396800
 31
0.000000
  1
TP34
  0
TEXT
 39
0.127000
  8
Layer10
 10
383.247900
 20
363.677200
 30
0.000000
 40
0.635000
 72
5
 11
385.576233
 21
363.677200
 31
0.000000
  1
TP35
  0
TEXT
 39
0.127000
  8
Layer10
 10
367.982500
 20
371.881400
 30
0.000000
 40
0.635000
 72
5
 11
370.310833
 21
371.881400
 31
0.000000
  1
TP36
  0
TEXT
 39
0.127000
  8
Layer10
 10
353.733100
 20
373.938800
 30
0.000000
 40
0.635000
 72
5
 11
356.061433
 21
373.938800
 31
0.000000
  1
TP37
  0
POLYLINE
  8
Layer11
 66
1
 10
0.000000
 20
0.000000
 30
0.000000
 40
0.381000
 41
0.381000
  0
VERTEX
  8
Layer11
 10
420.230300
 20
359.384600
  0
VERTEX
  8
Layer11
 10
420.230300
 20
360.883200
  0
VERTEX
  8
Layer11
 10
427.469300
 20
360.883200
  0
VERTEX
  8
Layer11
 10
427.469300
 20
356.870000
  0
VERTEX
  8
Layer11
 10
420.230300
 20
356.870000
  0
SEQEND
  0
POLYLINE
  8
Layer11
 66
1
 10
0.000000
 20
0.000000
 30
0.000000
 40
0.381000
 41
0.381000
  0
VERTEX
  8
Layer11
 10
420.230300
 20
356.870000
  0
VERTEX
  8
Layer11
 10
420.230300
 20
358.368600
  0
VERTEX
  8
Layer11
 10
420.458900
 20
358.876600
  0
VERTEX
  8
Layer11
 10
420.230300
 20
359.384600
  0
SEQEND
  0
POLYLINE
  8
Layer11
 66
1
 10
0.000000
 20
0.000000
 30
0.000000
 40
0.381000
 41
0.381000
  0
VERTEX
  8
Layer11
 10
336.892900
 20
353.110800
  0
VERTEX
  8
Layer11
 10
329.349100
 20
353.110800
  0
VERTEX
  8
Layer11
 10
329.349100
 20
367.080800
  0
VERTEX
  8
Layer11
 10
336.892900
 20
367.106200
  0
VERTEX
  8
Layer11
 10
336.892900
 20
353.110800
  0
SEQEND
  0
POLYLINE
  8
Layer11
 66
1
 10
0.000000
 20
0.000000
 30
0.000000
 40
0.381000
 41
0.381000
  0
VERTEX
  8
Layer11
 10
430.212500
 20
372.338600
  0
VERTEX
  8
Layer11
 10
441.388500
 20
372.338600
  0
VERTEX
  8
Layer11
 10
441.388500
 20
365.734600
  0
VERTEX
  8
Layer11
 10
430.212500
 20
365.734600
  0
VERTEX
  8
Layer11
 10
430.212500
 20
368.274600
  0
VERTEX
  8
Layer11
 10
430.974500
 20
369.036600
  0
VERTEX
  8
Layer11
 10
430.212500
 20
369.798600
  0
VERTEX
  8
Layer11
 10
430.212500
 20
372.338600
  0
SEQEND
  0
POLYLINE
  8
Layer11
 66
1
 10
0.000000
 20
0.000000
 30
0.000000
 40
0.381000
 41
0.381000
  0
VERTEX
  8
Layer11
 10
427.418500
 20
346.303600
  0
VERTEX
  8
Layer11
 10
417.512500
 20
346.303600
  0
VERTEX
  8
Layer11
 10
417.512500
 20
347.319600
  0
VERTEX
  8
Layer11
 10
418.274500
 20
348.081600
  0
VERTEX
  8
Layer11
 10
417.512500
 20
348.843600
  0
VERTEX
  8
Layer11
 10
417.512500
 20
349.859600
  0
VERTEX
  8
Layer11
 10
427.418500
 20
349.859600
  0
VERTEX
  8
Layer11
 10
427.418500
 20
346.557600
  0
SEQEND
  0
POLYLINE
  8
Layer11
 66
1
 10
0.000000
 20
0.000000
 30
0.000000
 40
0.381000
 41
0.381000
  0
VERTEX
  8
Layer11
 10
456.882500
 20
360.654600
  0
VERTEX
  8
Layer11
 10
456.882500
 20
349.478600
  0
VERTEX
  8
Layer11
 10
450.278500
 20
349.478600
  0
VERTEX
  8
Layer11
 10
450.278500
 20
360.654600
  0
VERTEX
  8
Layer11
 10
452.818500
 20
360.654600
  0
VERTEX
  8
Layer11
 10
453.580500
 20
359.892600
  0
VERTEX
  8
Layer11
 10
454.342500
 20
360.654600
  0
VERTEX
  8
Layer11
 10
456.882500
 20
360.654600
  0
SEQEND
  0
POLYLINE
  8
Layer11
 66
1
 10
0.000000
 20
0.000000
 30
0.000000
 40
0.381000
 41
0.381000
  0
VERTEX
  8
Layer11
 10
360.997500
 20
353.415600
  0
VERTEX
  8
Layer11
 10
360.997500
 20
357.987600
  0
VERTEX
  8
Layer11
 10
364.553500
 20
357.987600
  0
VERTEX
  8
Layer11
 10
364.553500
 20
353.415600
  0
VERTEX
  8
Layer11
 10
363.537500
 20
353.415600
  0
VERTEX
  8
Layer11
 10
362.775500
 20
354.177600
  0
VERTEX
  8
Layer11
 10
362.013500
 20
353.415600
  0
VERTEX
  8
Layer11
 10
360.997500
 20
353.415600
  0
SEQEND
  0
POLYLINE
  8
Layer11
 66
1
 10
0.000000
 20
0.000000
 30
0.000000
 40
0.381000
 41
0.381000
  0
VERTEX
  8
Layer11
 10
348.119700
 20
368.833400
  0
VERTEX
  8
Layer11
 10
346.849700
 20
370.078000
  0
VERTEX
  8
Layer11
 10
337.629500
 20
370.078000
  0
VERTEX
  8
Layer11
 10
337.629500
 20
362.102400
  0
VERTEX
  8
Layer11
 10
348.119700
 20
362.102400
  0
VERTEX
  8
Layer11
 10
348.119700
 20
368.833400
  0
SEQEND
  0
POLYLINE
  8
Layer11
 66
1
 10
0.000000
 20
0.000000
 30
0.000000
 40
0.381000
 41
0.381000
  0
VERTEX
  8
Layer11
 10
408.114500
 20
358.749600
  0
VERTEX
  8
Layer11
 10
412.686500
 20
358.749600
  0
VERTEX
  8
Layer11
 10
412.686500
 20
355.193600
  0
VERTEX
  8
Layer11
 10
408.114500
 20
355.193600
  0
VERTEX
  8
Layer11
 10
408.114500
 20
356.209600
  0
VERTEX
  8
Layer11
 10
408.876500
 20
356.971600
  0
VERTEX
  8
Layer11
 10
408.114500
 20
357.733600
  0
VERTEX
  8
Layer11
 10
408.114500
 20
358.749600
  0
SEQEND
  0
POLYLINE
  8
Layer11
 66
1
 10
0.000000
 20
0.000000
 30
0.000000
 40
0.381000
 41
0.381000
  0
VERTEX
  8
Layer11
 10
387.794500
 20
360.578400
  0
VERTEX
  8
Layer11
 10
387.794500
 20
349.656400
  0
VERTEX
  8
Layer11
 10
394.906500
 20
349.656400
  0
VERTEX
  8
Layer11
 10
394.906500
 20
360.578400
  0
VERTEX
  8
Layer11
 10
387.794500
 20
360.578400
  0
SEQEND
  0
POLYLINE
  8
Layer11
 66
1
 10
0.000000
 20
0.000000
 30
0.000000
 40
0.381000
 41
0.381000
  0
VERTEX
  8
Layer11
 10
451.294500
 20
344.779600
  0
VERTEX
  8
Layer11
 10
455.866500
 20
344.779600
  0
VERTEX
  8
Layer11
 10
455.866500
 20
341.223600
  0
VERTEX
  8
Layer11
 10
451.294500
 20
341.223600
  0
VERTEX
  8
Layer11
 10
451.294500
 20
342.239600
  0
VERTEX
  8
Layer11
 10
452.056500
 20
343.001600
  0
VERTEX
  8
Layer11
 10
451.294500
 20
343.763600
  0
VERTEX
  8
Layer11
 10
451.294500
 20
344.779600
  0
SEQEND
  0
POLYLINE
  8
Layer11
 66
1
 10
0.000000
 20
0.000000
 30
0.000000
 40
0.381000
 41
0.381000
  0
VERTEX
  8
Layer11
 10
444.944500
 20
344.779600
  0
VERTEX
  8
Layer11
 10
449.516500
 20
344.779600
  0
VERTEX
  8
Layer11
 10
449.516500
 20
341.223600
  0
VERTEX
  8
Layer11
 10
444.944500
 20
341.223600
  0
VERTEX
  8
Layer11
 10
444.944500
 20
342.239600
  0
VERTEX
  8
Layer11
 10
445.706500
 20
343.001600
  0
VERTEX
  8
Layer11
 10
444.944500
 20
343.763600
  0
VERTEX
  8
Layer11
 10
444.944500
 20
344.779600
  0
SEQEND
  0
POLYLINE
  8
Layer11
 66
1
 10
0.000000
 20
0.000000
 30
0.000000
 40
0.381000
 41
0.381000
  0
VERTEX
  8
Layer11
 10
358.584500
 20
369.468400
  0
VERTEX
  8
Layer11
 10
358.584500
 20
358.546400
  0
VERTEX
  8
Layer11
 10
365.696500
 20
358.546400
  0
VERTEX
  8
Layer11
 10
365.696500
 20
369.468400
  0
VERTEX
  8
Layer11
 10
358.584500
 20
369.468400
  0
SEQEND
  0
POLYLINE
  8
Layer11
 66
1
 10
0.000000
 20
0.000000
 30
0.000000
 40
0.381000
 41
0.381000
 70
1
  0
VERTEX
  8
Layer11
 42
1.000000
 10
333.844900
 20
340.106000
  0
VERTEX
  8
Layer11
 42
1.000000
 10
338.924900
 20
340.106000
  0
SEQEND
  0
POLYLINE
  8
Layer11
 66
1
 10
0.000000
 20
0.000000
 30
0.000000
 40
0.381000
 41
0.381000
  0
VERTEX
  8
Layer11
 10
338.391500
 20
339.115400
  0
VERTEX
  8
Layer11
 10
337.400900
 20
339.115400
  0
SEQEND
  0
POLYLINE
  8
Layer11
 66
1
 10
0.000000
 20
0.000000
 30
0.000000
 40
0.381000
 41
0.381000
  0
VERTEX
  8
Layer11
 10
337.908900
 20
338.607400
  0
VERTEX
  8
Layer11
 10
337.908900
 20
339.623400
  0
SEQEND
  0
POLYLINE
  8
Layer11
 66
1
 10
0.000000
 20
0.000000
 30
0.000000
 40
0.381000
 41
0.381000
  0
VERTEX
  8
Layer11
 10
378.345700
 20
351.790000
  0
VERTEX
  8
Layer11
 10
378.345700
 20
355.777800
  0
VERTEX
  8
Layer11
 10
384.822700
 20
355.777800
  0
VERTEX
  8
Layer11
 10
384.822700
 20
351.790000
  0
VERTEX
  8
Layer11
 10
378.345700
 20
351.790000
  0
SEQEND
  0
POLYLINE
  8
Layer11
 66
1
 10
0.000000
 20
0.000000
 30
0.000000
 40
0.381000
 41
0.381000
  0
VERTEX
  8
Layer11
 10
378.345700
 20
351.790000
  0
VERTEX
  8
Layer11
 10
377.583700
 20
351.790000
  0
VERTEX
  8
Layer11
 10
377.583700
 20
355.777800
  0
VERTEX
  8
Layer11
 10
378.345700
 20
355.777800
  0
SEQEND
  0
POLYLINE
  8
Layer11
 66
1
 10
0.000000
 20
0.000000
 30
0.000000
 40
0.381000
 41
0.381000
  0
VERTEX
  8
Layer11
 10
371.132100
 20
367.080800
  0
VERTEX
  8
Layer11
 10
367.144300
 20
367.080800
  0
VERTEX
  8
Layer11
 10
367.144300
 20
373.557800
  0
VERTEX
  8
Layer11
 10
371.132100
 20
373.557800
  0
VERTEX
  8
Layer11
 10
371.132100
 20
367.080800
  0
SEQEND
  0
POLYLINE
  8
Layer11
 66
1
 10
0.000000
 20
0.000000
 30
0.000000
 40
0.381000
 41
0.381000
  0
VERTEX
  8
Layer11
 10
371.132100
 20
367.080800
  0
VERTEX
  8
Layer11
 10
371.132100
 20
366.318800
  0
VERTEX
  8
Layer11
 10
367.144300
 20
366.318800
  0
VERTEX
  8
Layer11
 10
367.144300
 20
367.080800
  0
SEQEND
  0
POLYLINE
  8
Layer11
 66
1
 10
0.000000
 20
0.000000
 30
0.000000
 40
0.381000
 41
0.381000
  0
VERTEX
  8
Layer11
 10
441.439300
 20
361.873800
  0
VERTEX
  8
Layer11
 10
431.431700
 20
361.873800
  0
VERTEX
  8
Layer11
 10
431.431700
 20
355.879400
  0
VERTEX
  8
Layer11
 10
441.439300
 20
355.879400
  0
VERTEX
  8
Layer11
 10
441.439300
 20
361.873800
  0
SEQEND
  0
POLYLINE
  8
Layer11
 66
1
 10
0.000000
 20
0.000000
 30
0.000000
 40
0.381000
 41
0.381000
  0
VERTEX
  8
Layer11
 10
348.424500
 20
370.560600
  0
VERTEX
  8
Layer11
 10
345.376500
 20
370.560600
  0
VERTEX
  8
Layer11
 10
345.376500
 20
375.386600
  0
VERTEX
  8
Layer11
 10
348.424500
 20
375.386600
  0
VERTEX
  8
Layer11
 10
348.424500
 20
370.560600
  0
SEQEND
  0
POLYLINE
  8
Layer11
 66
1
 10
0.000000
 20
0.000000
 30
0.000000
 40
0.381000
 41
0.381000
  0
VERTEX
  8
Layer11
 10
352.234500
 20
370.560600
  0
VERTEX
  8
Layer11
 10
349.186500
 20
370.560600
  0
VERTEX
  8
Layer11
 10
349.186500
 20
375.386600
  0
VERTEX
  8
Layer11
 10
352.234500
 20
375.386600
  0
VERTEX
  8
Layer11
 10
352.234500
 20
370.560600
  0
SEQEND
  0
POLYLINE
  8
Layer11
 66
1
 10
0.000000
 20
0.000000
 30
0.000000
 40
0.381000
 41
0.381000
  0
VERTEX
  8
Layer11
 10
356.044500
 20
370.560600
  0
VERTEX
  8
Layer11
 10
352.996500
 20
370.560600
  0
VERTEX
  8
Layer11
 10
352.996500
 20
375.386600
  0
VERTEX
  8
Layer11
 10
356.044500
 20
375.386600
  0
VERTEX
  8
Layer11
 10
356.044500
 20
370.560600
  0
SEQEND
  0
POLYLINE
  8
Layer11
 66
1
 10
0.000000
 20
0.000000
 30
0.000000
 40
0.381000
 41
0.381000
  0
VERTEX
  8
Layer11
 10
418.655500
 20
367.004600
  0
VERTEX
  8
Layer11
 10
418.655500
 20
363.448600
  0
VERTEX
  8
Layer11
 10
421.195500
 20
363.448600
  0
VERTEX
  8
Layer11
 10
421.195500
 20
367.004600
  0
VERTEX
  8
Layer11
 10
418.655500
 20
367.004600
  0
SEQEND
  0
POLYLINE
  8
Layer11
 66
1
 10
0.000000
 20
0.000000
 30
0.000000
 40
0.381000
 41
0.381000
  0
VERTEX
  8
Layer11
 10
400.875500
 20
358.749600
  0
VERTEX
  8
Layer11
 10
400.875500
 20
355.193600
  0
VERTEX
  8
Layer11
 10
403.415500
 20
355.193600
  0
VERTEX
  8
Layer11
 10
403.415500
 20
358.749600
  0
VERTEX
  8
Layer11
 10
400.875500
 20
358.749600
  0
SEQEND
  0
POLYLINE
  8
Layer11
 66
1
 10
0.000000
 20
0.000000
 30
0.000000
 40
0.381000
 41
0.381000
  0
VERTEX
  8
Layer11
 10
445.325500
 20
371.068600
  0
VERTEX
  8
Layer11
 10
445.325500
 20
374.624600
  0
VERTEX
  8
Layer11
 10
442.785500
 20
374.624600
  0
VERTEX
  8
Layer11
 10
442.785500
 20
371.068600
  0
VERTEX
  8
Layer11
 10
445.325500
 20
371.068600
  0
SEQEND
  0
POLYLINE
  8
Layer11
 66
1
 10
0.000000
 20
0.000000
 30
0.000000
 40
0.381000
 41
0.381000
  0
VERTEX
  8
Layer11
 10
344.182700
 20
338.861400
  0
VERTEX
  8
Layer11
 10
340.626700
 20
338.861400
  0
VERTEX
  8
Layer11
 10
340.626700
 20
336.321400
  0
VERTEX
  8
Layer11
 10
344.182700
 20
336.321400
  0
VERTEX
  8
Layer11
 10
344.182700
 20
338.861400
  0
SEQEND
  0
POLYLINE
  8
Layer11
 66
1
 10
0.000000
 20
0.000000
 30
0.000000
 40
0.381000
 41
0.381000
  0
VERTEX
  8
Layer11
 10
393.890500
 20
362.813600
  0
VERTEX
  8
Layer11
 10
393.890500
 20
366.369600
  0
VERTEX
  8
Layer11
 10
391.350500
 20
366.369600
  0
VERTEX
  8
Layer11
 10
391.350500
 20
362.813600
  0
VERTEX
  8
Layer11
 10
393.890500
 20
362.813600
  0
SEQEND
  0
POLYLINE
  8
Layer11
 66
1
 10
0.000000
 20
0.000000
 30
0.000000
 40
0.381000
 41
0.381000
  0
VERTEX
  8
Layer11
 10
460.184500
 20
340.715600
  0
VERTEX
  8
Layer11
 10
457.136500
 20
340.715600
  0
VERTEX
  8
Layer11
 10
457.136500
 20
345.541600
  0
VERTEX
  8
Layer11
 10
460.184500
 20
345.541600
  0
VERTEX
  8
Layer11
 10
460.184500
 20
340.715600
  0
SEQEND
  0
POLYLINE
  8
Layer11
 66
1
 10
0.000000
 20
0.000000
 30
0.000000
 40
0.381000
 41
0.381000
  0
VERTEX
  8
Layer11
 10
436.816500
 20
345.287600
  0
VERTEX
  8
Layer11
 10
439.864500
 20
345.287600
  0
VERTEX
  8
Layer11
 10
439.864500
 20
340.461600
  0
VERTEX
  8
Layer11
 10
436.816500
 20
340.461600
  0
VERTEX
  8
Layer11
 10
436.816500
 20
345.287600
  0
SEQEND
  0
POLYLINE
  8
Layer11
 66
1
 10
0.000000
 20
0.000000
 30
0.000000
 40
0.381000
 41
0.381000
  0
VERTEX
  8
Layer11
 10
393.255500
 20
342.874600
  0
VERTEX
  8
Layer11
 10
393.255500
 20
339.318600
  0
VERTEX
  8
Layer11
 10
395.795500
 20
339.318600
  0
VERTEX
  8
Layer11
 10
395.795500
 20
342.874600
  0
VERTEX
  8
Layer11
 10
393.255500
 20
342.874600
  0
SEQEND
  0
POLYLINE
  8
Layer11
 66
1
 10
0.000000
 20
0.000000
 30
0.000000
 40
0.381000
 41
0.381000
  0
VERTEX
  8
Layer11
 10
414.845500
 20
338.048600
  0
VERTEX
  8
Layer11
 10
414.845500
 20
341.604600
  0
VERTEX
  8
Layer11
 10
412.305500
 20
341.604600
  0
VERTEX
  8
Layer11
 10
412.305500
 20
338.048600
  0
VERTEX
  8
Layer11
 10
414.845500
 20
338.048600
  0
SEQEND
  0
POLYLINE
  8
Layer11
 66
1
 10
0.000000
 20
0.000000
 30
0.000000
 40
0.381000
 41
0.381000
  0
VERTEX
  8
Layer11
 10
459.930500
 20
336.143600
  0
VERTEX
  8
Layer11
 10
459.930500
 20
339.699600
  0
VERTEX
  8
Layer11
 10
457.390500
 20
339.699600
  0
VERTEX
  8
Layer11
 10
457.390500
 20
336.143600
  0
VERTEX
  8
Layer11
 10
459.930500
 20
336.143600
  0
SEQEND
  0
POLYLINE
  8
Layer11
 66
1
 10
0.000000
 20
0.000000
 30
0.000000
 40
0.381000
 41
0.381000
  0
VERTEX
  8
Layer11
 10
443.420500
 20
336.143600
  0
VERTEX
  8
Layer11
 10
443.420500
 20
339.699600
  0
VERTEX
  8
Layer11
 10
440.880500
 20
339.699600
  0
VERTEX
  8
Layer11
 10
440.880500
 20
336.143600
  0
VERTEX
  8
Layer11
 10
443.420500
 20
336.143600
  0
SEQEND
  0
POLYLINE
  8
Layer11
 66
1
 10
0.000000
 20
0.000000
 30
0.000000
 40
0.381000
 41
0.381000
  0
VERTEX
  8
Layer11
 10
431.355500
 20
338.048600
  0
VERTEX
  8
Layer11
 10
431.355500
 20
341.604600
  0
VERTEX
  8
Layer11
 10
428.815500
 20
341.604600
  0
VERTEX
  8
Layer11
 10
428.815500
 20
338.048600
  0
VERTEX
  8
Layer11
 10
431.355500
 20
338.048600
  0
SEQEND
  0
POLYLINE
  8
Layer11
 66
1
 10
0.000000
 20
0.000000
 30
0.000000
 40
0.381000
 41
0.381000
  0
VERTEX
  8
Layer11
 10
370.268500
 20
362.686600
  0
VERTEX
  8
Layer11
 10
366.712500
 20
362.686600
  0
VERTEX
  8
Layer11
 10
366.712500
 20
360.146600
  0
VERTEX
  8
Layer11
 10
370.268500
 20
360.146600
  0
VERTEX
  8
Layer11
 10
370.268500
 20
362.686600
  0
SEQEND
  0
POLYLINE
  8
Layer11
 66
1
 10
0.000000
 20
0.000000
 30
0.000000
 40
0.381000
 41
0.381000
  0
VERTEX
  8
Layer11
 10
357.695500
 20
364.718600
  0
VERTEX
  8
Layer11
 10
357.695500
 20
368.274600
  0
VERTEX
  8
Layer11
 10
355.155500
 20
368.274600
  0
VERTEX
  8
Layer11
 10
355.155500
 20
364.718600
  0
VERTEX
  8
Layer11
 10
357.695500
 20
364.718600
  0
SEQEND
  0
POLYLINE
  8
Layer11
 66
1
 10
0.000000
 20
0.000000
 30
0.000000
 40
0.381000
 41
0.381000
  0
VERTEX
  8
Layer11
 10
357.695500
 20
360.273600
  0
VERTEX
  8
Layer11
 10
357.695500
 20
363.829600
  0
VERTEX
  8
Layer11
 10
355.155500
 20
363.829600
  0
VERTEX
  8
Layer11
 10
355.155500
 20
360.273600
  0
VERTEX
  8
Layer11
 10
357.695500
 20
360.273600
  0
SEQEND
  0
POLYLINE
  8
Layer11
 66
1
 10
0.000000
 20
0.000000
 30
0.000000
 40
0.381000
 41
0.381000
  0
VERTEX
  8
Layer11
 10
370.268500
 20
365.861600
  0
VERTEX
  8
Layer11
 10
366.712500
 20
365.861600
  0
VERTEX
  8
Layer11
 10
366.712500
 20
363.321600
  0
VERTEX
  8
Layer11
 10
370.268500
 20
363.321600
  0
VERTEX
  8
Layer11
 10
370.268500
 20
365.861600
  0
SEQEND
  0
POLYLINE
  8
Layer11
 66
1
 10
0.000000
 20
0.000000
 30
0.000000
 40
0.381000
 41
0.381000
  0
VERTEX
  8
Layer11
 10
349.567500
 20
366.496600
  0
VERTEX
  8
Layer11
 10
353.123500
 20
366.496600
  0
VERTEX
  8
Layer11
 10
353.123500
 20
369.036600
  0
VERTEX
  8
Layer11
 10
349.567500
 20
369.036600
  0
VERTEX
  8
Layer11
 10
349.567500
 20
366.496600
  0
SEQEND
  0
POLYLINE
  8
Layer11
 66
1
 10
0.000000
 20
0.000000
 30
0.000000
 40
0.381000
 41
0.381000
  0
VERTEX
  8
Layer11
 10
463.994500
 20
340.715600
  0
VERTEX
  8
Layer11
 10
460.946500
 20
340.715600
  0
VERTEX
  8
Layer11
 10
460.946500
 20
345.541600
  0
VERTEX
  8
Layer11
 10
463.994500
 20
345.541600
  0
VERTEX
  8
Layer11
 10
463.994500
 20
340.715600
  0
SEQEND
  0
POLYLINE
  8
Layer11
 66
1
 10
0.000000
 20
0.000000
 30
0.000000
 40
0.381000
 41
0.381000
  0
VERTEX
  8
Layer11
 10
440.626500
 20
345.287600
  0
VERTEX
  8
Layer11
 10
443.674500
 20
345.287600
  0
VERTEX
  8
Layer11
 10
443.674500
 20
340.461600
  0
VERTEX
  8
Layer11
 10
440.626500
 20
340.461600
  0
VERTEX
  8
Layer11
 10
440.626500
 20
345.287600
  0
SEQEND
  0
POLYLINE
  8
Layer11
 66
1
 10
0.000000
 20
0.000000
 30
0.000000
 40
0.381000
 41
0.381000
  0
VERTEX
  8
Layer11
 10
404.685500
 20
358.749600
  0
VERTEX
  8
Layer11
 10
404.685500
 20
355.193600
  0
VERTEX
  8
Layer11
 10
407.225500
 20
355.193600
  0
VERTEX
  8
Layer11
 10
407.225500
 20
358.749600
  0
VERTEX
  8
Layer11
 10
404.685500
 20
358.749600
  0
SEQEND
  0
POLYLINE
  8
Layer11
 66
1
 10
0.000000
 20
0.000000
 30
0.000000
 40
0.381000
 41
0.381000
  0
VERTEX
  8
Layer11
 10
330.111100
 20
347.827600
  0
VERTEX
  8
Layer11
 10
333.667100
 20
347.827600
  0
VERTEX
  8
Layer11
 10
333.667100
 20
350.367600
  0
VERTEX
  8
Layer11
 10
330.111100
 20
350.367600
  0
VERTEX
  8
Layer11
 10
330.111100
 20
347.827600
  0
SEQEND
  0
POLYLINE
  8
Layer11
 66
1
 10
0.000000
 20
0.000000
 30
0.000000
 40
0.381000
 41
0.381000
  0
VERTEX
  8
Layer11
 10
334.886300
 20
347.599000
  0
VERTEX
  8
Layer11
 10
334.886300
 20
342.620600
  0
VERTEX
  8
Layer11
 10
328.383900
 20
342.620600
  0
VERTEX
  8
Layer11
 10
328.383900
 20
347.599000
  0
VERTEX
  8
Layer11
 10
334.886300
 20
347.599000
  0
SEQEND
  0
POLYLINE
  8
Layer11
 66
1
 10
0.000000
 20
0.000000
 30
0.000000
 40
0.381000
 41
0.381000
  0
VERTEX
  8
Layer11
 10
334.175100
 20
347.268800
  0
VERTEX
  8
Layer11
 10
334.175100
 20
346.760800
  0
SEQEND
  0
POLYLINE
  8
Layer11
 66
1
 10
0.000000
 20
0.000000
 30
0.000000
 40
0.381000
 41
0.381000
  0
VERTEX
  8
Layer11
 10
334.429100
 20
347.014800
  0
VERTEX
  8
Layer11
 10
333.921100
 20
347.014800
  0
SEQEND
  0
POLYLINE
  8
Layer11
 66
1
 10
0.000000
 20
0.000000
 30
0.000000
 40
0.381000
 41
0.381000
  0
VERTEX
  8
Layer11
 10
381.825500
 20
350.494600
  0
VERTEX
  8
Layer11
 10
381.825500
 20
346.938600
  0
VERTEX
  8
Layer11
 10
384.365500
 20
346.938600
  0
VERTEX
  8
Layer11
 10
384.365500
 20
350.494600
  0
VERTEX
  8
Layer11
 10
381.825500
 20
350.494600
  0
SEQEND
  0
POLYLINE
  8
Layer11
 66
1
 10
0.000000
 20
0.000000
 30
0.000000
 40
0.381000
 41
0.381000
  0
VERTEX
  8
Layer11
 10
414.210500
 20
349.859600
  0
VERTEX
  8
Layer11
 10
414.210500
 20
346.303600
  0
VERTEX
  8
Layer11
 10
416.750500
 20
346.303600
  0
VERTEX
  8
Layer11
 10
416.750500
 20
349.859600
  0
VERTEX
  8
Layer11
 10
414.210500
 20
349.859600
  0
SEQEND
  0
POLYLINE
  8
Layer11
 66
1
 10
0.000000
 20
0.000000
 30
0.000000
 40
0.381000
 41
0.381000
  0
VERTEX
  8
Layer11
 10
455.358500
 20
365.226600
  0
VERTEX
  8
Layer11
 10
451.802500
 20
365.226600
  0
VERTEX
  8
Layer11
 10
451.802500
 20
362.686600
  0
VERTEX
  8
Layer11
 10
455.358500
 20
362.686600
  0
VERTEX
  8
Layer11
 10
455.358500
 20
365.226600
  0
SEQEND
  0
POLYLINE
  8
Layer11
 66
1
 10
0.000000
 20
0.000000
 30
0.000000
 40
0.381000
 41
0.381000
  0
VERTEX
  8
Layer11
 10
445.325500
 20
364.083600
  0
VERTEX
  8
Layer11
 10
445.325500
 20
367.639600
  0
VERTEX
  8
Layer11
 10
442.785500
 20
367.639600
  0
VERTEX
  8
Layer11
 10
442.785500
 20
364.083600
  0
VERTEX
  8
Layer11
 10
445.325500
 20
364.083600
  0
SEQEND
  0
POLYLINE
  8
Layer11
 66
1
 10
0.000000
 20
0.000000
 30
0.000000
 40
0.381000
 41
0.381000
  0
VERTEX
  8
Layer11
 10
416.115500
 20
360.654600
  0
VERTEX
  8
Layer11
 10
416.115500
 20
357.098600
  0
VERTEX
  8
Layer11
 10
418.655500
 20
357.098600
  0
VERTEX
  8
Layer11
 10
418.655500
 20
360.654600
  0
VERTEX
  8
Layer11
 10
416.115500
 20
360.654600
  0
SEQEND
  0
POLYLINE
  8
Layer11
 66
1
 10
0.000000
 20
0.000000
 30
0.000000
 40
0.381000
 41
0.381000
  0
VERTEX
  8
Layer11
 10
372.935500
 20
342.874600
  0
VERTEX
  8
Layer11
 10
372.935500
 20
339.318600
  0
VERTEX
  8
Layer11
 10
375.475500
 20
339.318600
  0
VERTEX
  8
Layer11
 10
375.475500
 20
342.874600
  0
VERTEX
  8
Layer11
 10
372.935500
 20
342.874600
  0
SEQEND
  0
POLYLINE
  8
Layer11
 66
1
 10
0.000000
 20
0.000000
 30
0.000000
 40
0.381000
 41
0.381000
  0
VERTEX
  8
Layer11
 10
378.015500
 20
342.874600
  0
VERTEX
  8
Layer11
 10
378.015500
 20
339.318600
  0
VERTEX
  8
Layer11
 10
380.555500
 20
339.318600
  0
VERTEX
  8
Layer11
 10
380.555500
 20
342.874600
  0
VERTEX
  8
Layer11
 10
378.015500
 20
342.874600
  0
SEQEND
  0
POLYLINE
  8
Layer11
 66
1
 10
0.000000
 20
0.000000
 30
0.000000
 40
0.381000
 41
0.381000
  0
VERTEX
  8
Layer11
 10
383.095500
 20
342.874600
  0
VERTEX
  8
Layer11
 10
383.095500
 20
339.318600
  0
VERTEX
  8
Layer11
 10
385.635500
 20
339.318600
  0
VERTEX
  8
Layer11
 10
385.635500
 20
342.874600
  0
VERTEX
  8
Layer11
 10
383.095500
 20
342.874600
  0
SEQEND
  0
POLYLINE
  8
Layer11
 66
1
 10
0.000000
 20
0.000000
 30
0.000000
 40
0.381000
 41
0.381000
  0
VERTEX
  8
Layer11
 10
388.175500
 20
342.874600
  0
VERTEX
  8
Layer11
 10
388.175500
 20
339.318600
  0
VERTEX
  8
Layer11
 10
390.715500
 20
339.318600
  0
VERTEX
  8
Layer11
 10
390.715500
 20
342.874600
  0
VERTEX
  8
Layer11
 10
388.175500
 20
342.874600
  0
SEQEND
  0
POLYLINE
  8
Layer11
 66
1
 10
0.000000
 20
0.000000
 30
0.000000
 40
0.381000
 41
0.381000
  0
VERTEX
  8
Layer11
 10
418.655500
 20
341.604600
  0
VERTEX
  8
Layer11
 10
418.655500
 20
338.048600
  0
VERTEX
  8
Layer11
 10
421.195500
 20
338.048600
  0
VERTEX
  8
Layer11
 10
421.195500
 20
341.604600
  0
VERTEX
  8
Layer11
 10
418.655500
 20
341.604600
  0
SEQEND
  0
POLYLINE
  8
Layer11
 66
1
 10
0.000000
 20
0.000000
 30
0.000000
 40
0.381000
 41
0.381000
  0
VERTEX
  8
Layer11
 10
424.370500
 20
341.604600
  0
VERTEX
  8
Layer11
 10
424.370500
 20
338.048600
  0
VERTEX
  8
Layer11
 10
426.910500
 20
338.048600
  0
VERTEX
  8
Layer11
 10
426.910500
 20
341.604600
  0
VERTEX
  8
Layer11
 10
424.370500
 20
341.604600
  0
SEQEND
  0
POLYLINE
  8
Layer11
 66
1
 10
0.000000
 20
0.000000
 30
0.000000
 40
0.381000
 41
0.381000
  0
VERTEX
  8
Layer11
 10
367.169700
 20
345.846400
  0
VERTEX
  8
Layer11
 10
362.191300
 20
345.846400
  0
VERTEX
  8
Layer11
 10
362.191300
 20
352.348800
  0
VERTEX
  8
Layer11
 10
367.169700
 20
352.348800
  0
VERTEX
  8
Layer11
 10
367.169700
 20
345.846400
  0
SEQEND
  0
POLYLINE
  8
Layer11
 66
1
 10
0.000000
 20
0.000000
 30
0.000000
 40
0.381000
 41
0.381000
  0
VERTEX
  8
Layer11
 10
366.839500
 20
346.557600
  0
VERTEX
  8
Layer11
 10
366.331500
 20
346.557600
  0
SEQEND
  0
POLYLINE
  8
Layer11
 66
1
 10
0.000000
 20
0.000000
 30
0.000000
 40
0.381000
 41
0.381000
  0
VERTEX
  8
Layer11
 10
366.585500
 20
346.303600
  0
VERTEX
  8
Layer11
 10
366.585500
 20
346.811600
  0
SEQEND
  0
POLYLINE
  8
Layer11
 66
1
 10
0.000000
 20
0.000000
 30
0.000000
 40
0.381000
 41
0.381000
  0
VERTEX
  8
Layer11
 10
361.505500
 20
348.843600
  0
VERTEX
  8
Layer11
 10
361.505500
 20
352.399600
  0
VERTEX
  8
Layer11
 10
358.965500
 20
352.399600
  0
VERTEX
  8
Layer11
 10
358.965500
 20
348.843600
  0
VERTEX
  8
Layer11
 10
361.505500
 20
348.843600
  0
SEQEND
  0
POLYLINE
  8
Layer11
 66
1
 10
0.000000
 20
0.000000
 30
0.000000
 40
0.381000
 41
0.381000
  0
VERTEX
  8
Layer11
 10
367.220500
 20
358.114600
  0
VERTEX
  8
Layer11
 10
367.220500
 20
354.558600
  0
VERTEX
  8
Layer11
 10
369.760500
 20
354.558600
  0
VERTEX
  8
Layer11
 10
369.760500
 20
358.114600
  0
VERTEX
  8
Layer11
 10
367.220500
 20
358.114600
  0
SEQEND
  0
POLYLINE
  8
Layer11
 66
1
 10
0.000000
 20
0.000000
 30
0.000000
 40
0.381000
 41
0.381000
  0
VERTEX
  8
Layer11
 10
395.846300
 20
360.476800
  0
VERTEX
  8
Layer11
 10
400.824700
 20
360.476800
  0
VERTEX
  8
Layer11
 10
400.824700
 20
353.974400
  0
VERTEX
  8
Layer11
 10
395.846300
 20
353.974400
  0
VERTEX
  8
Layer11
 10
395.846300
 20
360.476800
  0
SEQEND
  0
POLYLINE
  8
Layer11
 66
1
 10
0.000000
 20
0.000000
 30
0.000000
 40
0.381000
 41
0.381000
  0
VERTEX
  8
Layer11
 10
396.176500
 20
359.765600
  0
VERTEX
  8
Layer11
 10
396.684500
 20
359.765600
  0
SEQEND
  0
POLYLINE
  8
Layer11
 66
1
 10
0.000000
 20
0.000000
 30
0.000000
 40
0.381000
 41
0.381000
  0
VERTEX
  8
Layer11
 10
396.430500
 20
360.019600
  0
VERTEX
  8
Layer11
 10
396.430500
 20
359.511600
  0
SEQEND
  0
POLYLINE
  8
Layer11
 66
1
 10
0.000000
 20
0.000000
 30
0.000000
 40
0.381000
 41
0.381000
  0
VERTEX
  8
Layer11
 10
396.811500
 20
344.017600
  0
VERTEX
  8
Layer11
 10
399.859500
 20
344.017600
  0
VERTEX
  8
Layer11
 10
399.859500
 20
339.191600
  0
VERTEX
  8
Layer11
 10
396.811500
 20
339.191600
  0
VERTEX
  8
Layer11
 10
396.811500
 20
344.017600
  0
SEQEND
  0
POLYLINE
  8
Layer11
 66
1
 10
0.000000
 20
0.000000
 30
0.000000
 40
0.381000
 41
0.381000
  0
VERTEX
  8
Layer11
 10
387.845300
 20
344.322400
  0
VERTEX
  8
Layer11
 10
387.845300
 20
349.300800
  0
VERTEX
  8
Layer11
 10
394.347700
 20
349.300800
  0
VERTEX
  8
Layer11
 10
394.347700
 20
344.322400
  0
VERTEX
  8
Layer11
 10
387.845300
 20
344.322400
  0
SEQEND
  0
POLYLINE
  8
Layer11
 66
1
 10
0.000000
 20
0.000000
 30
0.000000
 40
0.381000
 41
0.381000
  0
VERTEX
  8
Layer11
 10
388.556500
 20
344.652600
  0
VERTEX
  8
Layer11
 10
388.556500
 20
345.160600
  0
SEQEND
  0
POLYLINE
  8
Layer11
 66
1
 10
0.000000
 20
0.000000
 30
0.000000
 40
0.381000
 41
0.381000
  0
VERTEX
  8
Layer11
 10
388.302500
 20
344.906600
  0
VERTEX
  8
Layer11
 10
388.810500
 20
344.906600
  0
SEQEND
  0
POLYLINE
  8
Layer11
 66
1
 10
0.000000
 20
0.000000
 30
0.000000
 40
0.381000
 41
0.381000
  0
VERTEX
  8
Layer11
 10
460.946500
 20
340.207600
  0
VERTEX
  8
Layer11
 10
463.994500
 20
340.207600
  0
VERTEX
  8
Layer11
 10
463.994500
 20
335.381600
  0
VERTEX
  8
Layer11
 10
460.946500
 20
335.381600
  0
VERTEX
  8
Layer11
 10
460.946500
 20
340.207600
  0
SEQEND
  0
POLYLINE
  8
Layer11
 66
1
 10
0.000000
 20
0.000000
 30
0.000000
 40
0.381000
 41
0.381000
  0
VERTEX
  8
Layer11
 10
444.944500
 20
335.762600
  0
VERTEX
  8
Layer11
 10
444.944500
 20
338.810600
  0
VERTEX
  8
Layer11
 10
449.770500
 20
338.810600
  0
VERTEX
  8
Layer11
 10
449.770500
 20
335.762600
  0
VERTEX
  8
Layer11
 10
444.944500
 20
335.762600
  0
SEQEND
  0
POLYLINE
  8
Layer11
 66
1
 10
0.000000
 20
0.000000
 30
0.000000
 40
0.381000
 41
0.381000
  0
VERTEX
  8
Layer11
 10
406.666700
 20
352.348800
  0
VERTEX
  8
Layer11
 10
397.649700
 20
352.348800
  0
VERTEX
  8
Layer11
 10
397.649700
 20
346.354400
  0
VERTEX
  8
Layer11
 10
406.666700
 20
346.354400
  0
VERTEX
  8
Layer11
 10
406.666700
 20
352.348800
  0
SEQEND
  0
POLYLINE
  8
Layer11
 66
1
 10
0.000000
 20
0.000000
 30
0.000000
 40
0.381000
 41
0.381000
  0
VERTEX
  8
Layer11
 10
398.081500
 20
351.383600
  0
VERTEX
  8
Layer11
 10
399.097500
 20
351.383600
  0
SEQEND
  0
POLYLINE
  8
Layer11
 66
1
 10
0.000000
 20
0.000000
 30
0.000000
 40
0.381000
 41
0.381000
  0
VERTEX
  8
Layer11
 10
398.589500
 20
351.891600
  0
VERTEX
  8
Layer11
 10
398.589500
 20
350.875600
  0
SEQEND
  0
POLYLINE
  8
Layer11
 66
1
 10
0.000000
 20
0.000000
 30
0.000000
 40
0.381000
 41
0.381000
  0
VERTEX
  8
Layer11
 10
430.720500
 20
358.368600
  0
VERTEX
  8
Layer11
 10
430.720500
 20
361.924600
  0
VERTEX
  8
Layer11
 10
428.180500
 20
361.924600
  0
VERTEX
  8
Layer11
 10
428.180500
 20
358.368600
  0
VERTEX
  8
Layer11
 10
430.720500
 20
358.368600
  0
SEQEND
  0
POLYLINE
  8
Layer11
 66
1
 10
0.000000
 20
0.000000
 30
0.000000
 40
0.381000
 41
0.381000
  0
VERTEX
  8
Layer11
 10
428.180500
 20
357.479600
  0
VERTEX
  8
Layer11
 10
428.180500
 20
353.923600
  0
VERTEX
  8
Layer11
 10
430.720500
 20
353.923600
  0
VERTEX
  8
Layer11
 10
430.720500
 20
357.479600
  0
VERTEX
  8
Layer11
 10
428.180500
 20
357.479600
  0
SEQEND
  0
POLYLINE
  8
Layer11
 66
1
 10
0.000000
 20
0.000000
 30
0.000000
 40
0.381000
 41
0.381000
  0
VERTEX
  8
Layer11
 10
428.180500
 20
353.034600
  0
VERTEX
  8
Layer11
 10
428.180500
 20
349.478600
  0
VERTEX
  8
Layer11
 10
430.720500
 20
349.478600
  0
VERTEX
  8
Layer11
 10
430.720500
 20
353.034600
  0
VERTEX
  8
Layer11
 10
428.180500
 20
353.034600
  0
SEQEND
  0
POLYLINE
  8
Layer11
 66
1
 10
0.000000
 20
0.000000
 30
0.000000
 40
0.381000
 41
0.381000
  0
VERTEX
  8
Layer11
 10
428.180500
 20
348.589600
  0
VERTEX
  8
Layer11
 10
428.180500
 20
345.033600
  0
VERTEX
  8
Layer11
 10
430.720500
 20
345.033600
  0
VERTEX
  8
Layer11
 10
430.720500
 20
348.589600
  0
VERTEX
  8
Layer11
 10
428.180500
 20
348.589600
  0
SEQEND
  0
POLYLINE
  8
Layer11
 66
1
 10
0.000000
 20
0.000000
 30
0.000000
 40
0.381000
 41
0.381000
  0
VERTEX
  8
Layer11
 10
416.115500
 20
356.209600
  0
VERTEX
  8
Layer11
 10
416.115500
 20
352.653600
  0
VERTEX
  8
Layer11
 10
418.655500
 20
352.653600
  0
VERTEX
  8
Layer11
 10
418.655500
 20
356.209600
  0
VERTEX
  8
Layer11
 10
416.115500
 20
356.209600
  0
SEQEND
  0
POLYLINE
  8
Layer11
 66
1
 10
0.000000
 20
0.000000
 30
0.000000
 40
0.381000
 41
0.381000
  0
VERTEX
  8
Layer11
 10
466.102700
 20
361.416600
  0
VERTEX
  8
Layer11
 10
478.802700
 20
361.416600
  0
VERTEX
  8
Layer11
 10
478.802700
 20
371.576600
  0
VERTEX
  8
Layer11
 10
466.102700
 20
371.576600
  0
VERTEX
  8
Layer11
 10
466.102700
 20
361.416600
  0
SEQEND
  0
POLYLINE
  8
Layer11
 66
1
 10
0.000000
 20
0.000000
 30
0.000000
 40
0.381000
 41
0.381000
  0
VERTEX
  8
Layer11
 10
462.292700
 20
361.416600
  0
VERTEX
  8
Layer11
 10
462.292700
 20
348.716600
  0
VERTEX
  8
Layer11
 10
472.452700
 20
348.716600
  0
VERTEX
  8
Layer11
 10
472.452700
 20
361.416600
  0
VERTEX
  8
Layer11
 10
462.292700
 20
361.416600
  0
SEQEND
  0
POLYLINE
  8
Layer11
 66
1
 10
0.000000
 20
0.000000
 30
0.000000
 40
0.381000
 41
0.381000
  0
VERTEX
  8
Layer11
 10
482.612700
 20
348.716600
  0
VERTEX
  8
Layer11
 10
482.612700
 20
361.416600
  0
VERTEX
  8
Layer11
 10
472.452700
 20
361.416600
  0
VERTEX
  8
Layer11
 10
472.452700
 20
348.716600
  0
VERTEX
  8
Layer11
 10
482.612700
 20
348.716600
  0
SEQEND
  0
POLYLINE
  8
Layer11
 66
1
 10
0.000000
 20
0.000000
 30
0.000000
 40
0.381000
 41
0.381000
  0
VERTEX
  8
Layer11
 10
466.102700
 20
338.556600
  0
VERTEX
  8
Layer11
 10
478.802700
 20
338.556600
  0
VERTEX
  8
Layer11
 10
478.802700
 20
348.716600
  0
VERTEX
  8
Layer11
 10
466.102700
 20
348.716600
  0
VERTEX
  8
Layer11
 10
466.102700
 20
338.556600
  0
SEQEND
  0
POLYLINE
  8
Layer11
 66
1
 10
0.000000
 20
0.000000
 30
0.000000
 40
0.381000
 41
0.381000
  0
VERTEX
  8
Layer11
 10
336.892900
 20
342.595200
  0
VERTEX
  8
Layer11
 10
352.894900
 20
342.595200
  0
VERTEX
  8
Layer11
 10
352.894900
 20
359.587800
  0
VERTEX
  8
Layer11
 10
336.892900
 20
359.587800
  0
VERTEX
  8
Layer11
 10
336.892900
 20
342.595200
  0
SEQEND
  0
POLYLINE
  8
Layer11
 66
1
 10
0.000000
 20
0.000000
 30
0.000000
 40
0.381000
 41
0.381000
  0
VERTEX
  8
Layer11
 10
455.587100
 20
369.925600
  0
VERTEX
  8
Layer11
 10
455.587100
 20
366.928400
  0
VERTEX
  8
Layer11
 10
451.599300
 20
366.928400
  0
VERTEX
  8
Layer11
 10
451.599300
 20
369.925600
  0
VERTEX
  8
Layer11
 10
455.587100
 20
369.925600
  0
SEQEND
  0
POLYLINE
  8
Layer11
 66
1
 10
0.000000
 20
0.000000
 30
0.000000
 40
0.381000
 41
0.381000
  0
VERTEX
  8
Layer11
 10
353.352100
 20
364.210600
  0
VERTEX
  8
Layer11
 10
353.352100
 20
361.213400
  0
VERTEX
  8
Layer11
 10
349.364300
 20
361.213400
  0
VERTEX
  8
Layer11
 10
349.364300
 20
364.210600
  0
VERTEX
  8
Layer11
 10
353.352100
 20
364.210600
  0
SEQEND
  0
POLYLINE
  8
Layer11
 66
1
 10
0.000000
 20
0.000000
 30
0.000000
 40
0.381000
 41
0.381000
  0
VERTEX
  8
Layer11
 10
457.771500
 20
370.408200
  0
VERTEX
  8
Layer11
 10
460.768700
 20
370.408200
  0
VERTEX
  8
Layer11
 10
460.768700
 20
366.420400
  0
VERTEX
  8
Layer11
 10
457.771500
 20
366.420400
  0
VERTEX
  8
Layer11
 10
457.771500
 20
370.408200
  0
SEQEND
  0
POLYLINE
  8
Layer11
 66
1
 10
0.000000
 20
0.000000
 30
0.000000
 40
0.381000
 41
0.381000
  0
VERTEX
  8
Layer11
 10
331.939900
 20
373.380000
  0
VERTEX
  8
Layer11
 10
330.669900
 20
374.650000
  0
VERTEX
  8
Layer11
 10
328.129900
 20
374.650000
  0
VERTEX
  8
Layer11
 10
326.859900
 20
373.380000
  0
VERTEX
  8
Layer11
 10
326.859900
 20
370.840000
  0
VERTEX
  8
Layer11
 10
328.129900
 20
369.570000
  0
VERTEX
  8
Layer11
 10
330.669900
 20
369.570000
  0
VERTEX
  8
Layer11
 10
331.939900
 20
370.840000
  0
VERTEX
  8
Layer11
 10
331.939900
 20
373.380000
  0
SEQEND
  0
POLYLINE
  8
Layer11
 66
1
 10
0.000000
 20
0.000000
 30
0.000000
 40
0.381000
 41
0.381000
  0
VERTEX
  8
Layer11
 10
331.939900
 20
340.360000
  0
VERTEX
  8
Layer11
 10
330.669900
 20
341.630000
  0
VERTEX
  8
Layer11
 10
328.129900
 20
341.630000
  0
VERTEX
  8
Layer11
 10
326.859900
 20
340.360000
  0
VERTEX
  8
Layer11
 10
326.859900
 20
337.820000
  0
VERTEX
  8
Layer11
 10
328.129900
 20
336.550000
  0
VERTEX
  8
Layer11
 10
330.669900
 20
336.550000
  0
VERTEX
  8
Layer11
 10
331.939900
 20
337.820000
  0
VERTEX
  8
Layer11
 10
331.939900
 20
340.360000
  0
SEQEND
  0
POLYLINE
  8
Layer11
 66
1
 10
0.000000
 20
0.000000
 30
0.000000
 40
0.381000
 41
0.381000
  0
VERTEX
  8
Layer11
 10
485.940100
 20
373.380000
  0
VERTEX
  8
Layer11
 10
484.670100
 20
374.650000
  0
VERTEX
  8
Layer11
 10
482.130100
 20
374.650000
  0
VERTEX
  8
Layer11
 10
480.860100
 20
373.380000
  0
VERTEX
  8
Layer11
 10
480.860100
 20
370.840000
  0
VERTEX
  8
Layer11
 10
482.130100
 20
369.570000
  0
VERTEX
  8
Layer11
 10
484.670100
 20
369.570000
  0
VERTEX
  8
Layer11
 10
485.940100
 20
370.840000
  0
VERTEX
  8
Layer11
 10
485.940100
 20
373.380000
  0
SEQEND
  0
POLYLINE
  8
Layer11
 66
1
 10
0.000000
 20
0.000000
 30
0.000000
 40
0.381000
 41
0.381000
  0
VERTEX
  8
Layer11
 10
485.940100
 20
340.360000
  0
VERTEX
  8
Layer11
 10
484.670100
 20
341.630000
  0
VERTEX
  8
Layer11
 10
482.130100
 20
341.630000
  0
VERTEX
  8
Layer11
 10
480.860100
 20
340.360000
  0
VERTEX
  8
Layer11
 10
480.860100
 20
337.820000
  0
VERTEX
  8
Layer11
 10
482.130100
 20
336.550000
  0
VERTEX
  8
Layer11
 10
484.670100
 20
336.550000
  0
VERTEX
  8
Layer11
 10
485.940100
 20
337.820000
  0
VERTEX
  8
Layer11
 10
485.940100
 20
340.360000
  0
SEQEND
  0
TEXT
 39
0.127000
  8
Layer11
 10
424.704933
 20
358.571800
 30
0.000000
 40
0.635000
 71
2
 72
5
 11
423.011600
 21
358.571800
 31
0.000000
  1
IC1
  0
TEXT
 39
0.127000
  8
Layer11
 10
331.584300
 20
359.151767
 30
0.000000
 40
0.635000
 71
2
 72
5
 11
331.584300
 21
360.845100
 31
0.000000
 50
270.000000
  1
IC3
  0
TEXT
 39
0.127000
  8
Layer11
 10
436.769933
 20
368.731800
 30
0.000000
 40
0.635000
 71
2
 72
5
 11
435.076600
 21
368.731800
 31
0.000000
  1
IC4
  0
TEXT
 39
0.127000
  8
Layer11
 10
423.434933
 20
347.776800
 30
0.000000
 40
0.635000
 71
2
 72
5
 11
421.741600
 21
347.776800
 31
0.000000
  1
IC5
  0
TEXT
 39
0.127000
  8
Layer11
 10
453.275700
 20
354.122567
 30
0.000000
 40
0.635000
 71
2
 72
5
 11
453.275700
 21
355.815900
 31
0.000000
 50
270.000000
  1
IC6
  0
TEXT
 39
0.127000
  8
Layer11
 10
362.470700
 20
354.757567
 30
0.000000
 40
0.635000
 71
2
 72
5
 11
362.470700
 21
356.450900
 31
0.000000
 50
270.000000
  1
IC7
  0
TEXT
 39
0.127000
  8
Layer11
 10
343.856733
 20
365.785400
 30
0.000000
 40
0.635000
 71
2
 72
5
 11
342.163400
 21
365.785400
 31
0.000000
  1
IC9
  0
TEXT
 39
0.127000
  8
Layer11
 10
411.674733
 20
356.666800
 30
0.000000
 40
0.635000
 71
2
 72
5
 11
409.346400
 21
356.666800
 31
0.000000
  1
IC10
  0
TEXT
 39
0.127000
  8
Layer11
 10
392.319933
 20
355.396800
 30
0.000000
 40
0.635000
 71
2
 72
5
 11
390.626600
 21
355.396800
 31
0.000000
  1
TR1
  0
TEXT
 39
0.127000
  8
Layer11
 10
454.549933
 20
342.696800
 30
0.000000
 40
0.635000
 71
2
 72
5
 11
452.856600
 21
342.696800
 31
0.000000
  1
TR2
  0
TEXT
 39
0.127000
  8
Layer11
 10
448.199933
 20
342.696800
 30
0.000000
 40
0.635000
 71
2
 72
5
 11
446.506600
 21
342.696800
 31
0.000000
  1
TR3
  0
TEXT
 39
0.127000
  8
Layer11
 10
363.109933
 20
364.286800
 30
0.000000
 40
0.635000
 71
2
 72
5
 11
361.416600
 21
364.286800
 31
0.000000
  1
TR4
  0
TEXT
 39
0.127000
  8
Layer11
 10
336.080100
 20
339.466767
 30
0.000000
 40
0.635000
 71
2
 72
5
 11
336.080100
 21
340.525100
 31
0.000000
 50
270.000000
  1
D1
  0
TEXT
 39
0.127000
  8
Layer11
 10
382.210733
 20
353.491800
 30
0.000000
 40
0.635000
 71
2
 72
5
 11
381.152400
 21
353.491800
 31
0.000000
  1
D2
  0
TEXT
 39
0.127000
  8
Layer11
 10
368.820700
 20
369.667367
 30
0.000000
 40
0.635000
 71
2
 72
5
 11
368.820700
 21
370.725700
 31
0.000000
 50
270.000000
  1
D5
  0
TEXT
 39
0.127000
  8
Layer11
 10
437.404933
 20
358.571800
 30
0.000000
 40
0.635000
 71
2
 72
5
 11
435.711600
 21
358.571800
 31
0.000000
  1
XT1
  0
TEXT
 39
0.127000
  8
Layer11
 10
347.539733
 20
372.541800
 30
0.000000
 40
0.635000
 71
2
 72
5
 11
346.481400
 21
372.541800
 31
0.000000
  1
R1
  0
TEXT
 39
0.127000
  8
Layer11
 10
351.349733
 20
372.541800
 30
0.000000
 40
0.635000
 71
2
 72
5
 11
350.291400
 21
372.541800
 31
0.000000
  1
R2
  0
TEXT
 39
0.127000
  8
Layer11
 10
355.159733
 20
372.541800
 30
0.000000
 40
0.635000
 71
2
 72
5
 11
354.101400
 21
372.541800
 31
0.000000
  1
R3
  0
TEXT
 39
0.127000
  8
Layer11
 10
420.564733
 20
364.921800
 30
0.000000
 40
0.635000
 71
2
 72
5
 11
419.506400
 21
364.921800
 31
0.000000
  1
R4
  0
TEXT
 39
0.127000
  8
Layer11
 10
402.784733
 20
356.666800
 30
0.000000
 40
0.635000
 71
2
 72
5
 11
401.726400
 21
356.666800
 31
0.000000
  1
R5
  0
TEXT
 39
0.127000
  8
Layer11
 10
444.694733
 20
372.541800
 30
0.000000
 40
0.635000
 71
2
 72
5
 11
443.636400
 21
372.541800
 31
0.000000
  1
R6
  0
TEXT
 39
0.127000
  8
Layer11
 10
342.099900
 20
336.952167
 30
0.000000
 40
0.635000
 71
2
 72
5
 11
342.099900
 21
338.010500
 31
0.000000
 50
270.000000
  1
R7
  0
TEXT
 39
0.127000
  8
Layer11
 10
393.259733
 20
364.286800
 30
0.000000
 40
0.635000
 71
2
 72
5
 11
392.201400
 21
364.286800
 31
0.000000
  1
R8
  0
TEXT
 39
0.127000
  8
Layer11
 10
459.299733
 20
342.696800
 30
0.000000
 40
0.635000
 71
2
 72
5
 11
458.241400
 21
342.696800
 31
0.000000
  1
R9
  0
TEXT
 39
0.127000
  8
Layer11
 10
439.309933
 20
342.696800
 30
0.000000
 40
0.635000
 71
2
 72
5
 11
437.616600
 21
342.696800
 31
0.000000
  1
R10
  0
TEXT
 39
0.127000
  8
Layer11
 10
395.494933
 20
340.791800
 30
0.000000
 40
0.635000
 71
2
 72
5
 11
393.801600
 21
340.791800
 31
0.000000
  1
R11
  0
TEXT
 39
0.127000
  8
Layer11
 10
414.544933
 20
339.521800
 30
0.000000
 40
0.635000
 71
2
 72
5
 11
412.851600
 21
339.521800
 31
0.000000
  1
R12
  0
TEXT
 39
0.127000
  8
Layer11
 10
459.629933
 20
337.616800
 30
0.000000
 40
0.635000
 71
2
 72
5
 11
457.936600
 21
337.616800
 31
0.000000
  1
R13
  0
TEXT
 39
0.127000
  8
Layer11
 10
443.119933
 20
337.616800
 30
0.000000
 40
0.635000
 71
2
 72
5
 11
441.426600
 21
337.616800
 31
0.000000
  1
R14
  0
TEXT
 39
0.127000
  8
Layer11
 10
431.054933
 20
339.521800
 30
0.000000
 40
0.635000
 71
2
 72
5
 11
429.361600
 21
339.521800
 31
0.000000
  1
R15
  0
TEXT
 39
0.127000
  8
Layer11
 10
368.185700
 20
360.472567
 30
0.000000
 40
0.635000
 71
2
 72
5
 11
368.185700
 21
362.165900
 31
0.000000
 50
270.000000
  1
R16
  0
TEXT
 39
0.127000
  8
Layer11
 10
357.394933
 20
366.191800
 30
0.000000
 40
0.635000
 71
2
 72
5
 11
355.701600
 21
366.191800
 31
0.000000
  1
R17
  0
TEXT
 39
0.127000
  8
Layer11
 10
357.394933
 20
361.746800
 30
0.000000
 40
0.635000
 71
2
 72
5
 11
355.701600
 21
361.746800
 31
0.000000
  1
R18
  0
TEXT
 39
0.127000
  8
Layer11
 10
368.185700
 20
363.647567
 30
0.000000
 40
0.635000
 71
2
 72
5
 11
368.185700
 21
365.340900
 31
0.000000
 50
270.000000
  1
R19
  0
TEXT
 39
0.127000
  8
Layer11
 10
351.040700
 20
366.822567
 30
0.000000
 40
0.635000
 71
2
 72
5
 11
351.040700
 21
368.515900
 31
0.000000
 50
270.000000
  1
R23
  0
TEXT
 39
0.127000
  8
Layer11
 10
463.439933
 20
342.696800
 30
0.000000
 40
0.635000
 71
2
 72
5
 11
461.746600
 21
342.696800
 31
0.000000
  1
R28
  0
TEXT
 39
0.127000
  8
Layer11
 10
443.119933
 20
342.696800
 30
0.000000
 40
0.635000
 71
2
 72
5
 11
441.426600
 21
342.696800
 31
0.000000
  1
R29
  0
TEXT
 39
0.127000
  8
Layer11
 10
406.594733
 20
356.666800
 30
0.000000
 40
0.635000
 71
2
 72
5
 11
405.536400
 21
356.666800
 31
0.000000
  1
C1
  0
TEXT
 39
0.127000
  8
Layer11
 10
331.584300
 20
348.458367
 30
0.000000
 40
0.635000
 71
2
 72
5
 11
331.584300
 21
349.516700
 31
0.000000
 50
270.000000
  1
C2
  0
TEXT
 39
0.127000
  8
Layer11
 10
332.020333
 20
344.805000
 30
0.000000
 40
0.635000
 71
2
 72
5
 11
330.962000
 21
344.805000
 31
0.000000
  1
C3
  0
TEXT
 39
0.127000
  8
Layer11
 10
383.734733
 20
348.411800
 30
0.000000
 40
0.635000
 71
2
 72
5
 11
382.676400
 21
348.411800
 31
0.000000
  1
C4
  0
TEXT
 39
0.127000
  8
Layer11
 10
416.119733
 20
347.776800
 30
0.000000
 40
0.635000
 71
2
 72
5
 11
415.061400
 21
347.776800
 31
0.000000
  1
C5
  0
TEXT
 39
0.127000
  8
Layer11
 10
453.275700
 20
363.317367
 30
0.000000
 40
0.635000
 71
2
 72
5
 11
453.275700
 21
364.375700
 31
0.000000
 50
270.000000
  1
C6
  0
TEXT
 39
0.127000
  8
Layer11
 10
444.694733
 20
365.556800
 30
0.000000
 40
0.635000
 71
2
 72
5
 11
443.636400
 21
365.556800
 31
0.000000
  1
C7
  0
TEXT
 39
0.127000
  8
Layer11
 10
418.024733
 20
358.571800
 30
0.000000
 40
0.635000
 71
2
 72
5
 11
416.966400
 21
358.571800
 31
0.000000
  1
C8
  0
TEXT
 39
0.127000
  8
Layer11
 10
374.844733
 20
340.791800
 30
0.000000
 40
0.635000
 71
2
 72
5
 11
373.786400
 21
340.791800
 31
0.000000
  1
C9
  0
TEXT
 39
0.127000
  8
Layer11
 10
380.254933
 20
340.791800
 30
0.000000
 40
0.635000
 71
2
 72
5
 11
378.561600
 21
340.791800
 31
0.000000
  1
C10
  0
TEXT
 39
0.127000
  8
Layer11
 10
385.334933
 20
340.791800
 30
0.000000
 40
0.635000
 71
2
 72
5
 11
383.641600
 21
340.791800
 31
0.000000
  1
C11
  0
TEXT
 39
0.127000
  8
Layer11
 10
390.414933
 20
340.791800
 30
0.000000
 40
0.635000
 71
2
 72
5
 11
388.721600
 21
340.791800
 31
0.000000
  1
C12
  0
TEXT
 39
0.127000
  8
Layer11
 10
420.894933
 20
339.521800
 30
0.000000
 40
0.635000
 71
2
 72
5
 11
419.201600
 21
339.521800
 31
0.000000
  1
C13
  0
TEXT
 39
0.127000
  8
Layer11
 10
426.609933
 20
339.521800
 30
0.000000
 40
0.635000
 71
2
 72
5
 11
424.916600
 21
339.521800
 31
0.000000
  1
C14
  0
TEXT
 39
0.127000
  8
Layer11
 10
364.375700
 20
348.407567
 30
0.000000
 40
0.635000
 71
2
 72
5
 11
364.375700
 21
350.100900
 31
0.000000
 50
270.000000
  1
C15
  0
TEXT
 39
0.127000
  8
Layer11
 10
361.204933
 20
350.316800
 30
0.000000
 40
0.635000
 71
2
 72
5
 11
359.511600
 21
350.316800
 31
0.000000
  1
C16
  0
TEXT
 39
0.127000
  8
Layer11
 10
369.459933
 20
356.031800
 30
0.000000
 40
0.635000
 71
2
 72
5
 11
367.766600
 21
356.031800
 31
0.000000
  1
C17
  0
TEXT
 39
0.127000
  8
Layer11
 10
398.030700
 20
356.027567
 30
0.000000
 40
0.635000
 71
2
 72
5
 11
398.030700
 21
357.720900
 31
0.000000
 50
270.000000
  1
C20
  0
TEXT
 39
0.127000
  8
Layer11
 10
399.304933
 20
341.426800
 30
0.000000
 40
0.635000
 71
2
 72
5
 11
397.611600
 21
341.426800
 31
0.000000
  1
C23
  0
TEXT
 39
0.127000
  8
Layer11
 10
392.319933
 20
346.506800
 30
0.000000
 40
0.635000
 71
2
 72
5
 11
390.626600
 21
346.506800
 31
0.000000
  1
C24
  0
TEXT
 39
0.127000
  8
Layer11
 10
463.439933
 20
337.616800
 30
0.000000
 40
0.635000
 71
2
 72
5
 11
461.746600
 21
337.616800
 31
0.000000
  1
C25
  0
TEXT
 39
0.127000
  8
Layer11
 10
446.925700
 20
336.342567
 30
0.000000
 40
0.635000
 71
2
 72
5
 11
446.925700
 21
338.035900
 31
0.000000
 50
270.000000
  1
C26
  0
TEXT
 39
0.127000
  8
Layer11
 10
401.840700
 20
348.407567
 30
0.000000
 40
0.635000
 71
2
 72
5
 11
401.840700
 21
350.100900
 31
0.000000
 50
270.000000
  1
C27
  0
TEXT
 39
0.127000
  8
Layer11
 10
430.419933
 20
359.841800
 30
0.000000
 40
0.635000
 71
2
 72
5
 11
428.726600
 21
359.841800
 31
0.000000
  1
C28
  0
TEXT
 39
0.127000
  8
Layer11
 10
430.419933
 20
355.396800
 30
0.000000
 40
0.635000
 71
2
 72
5
 11
428.726600
 21
355.396800
 31
0.000000
  1
C29
  0
TEXT
 39
0.127000
  8
Layer11
 10
430.419933
 20
350.951800
 30
0.000000
 40
0.635000
 71
2
 72
5
 11
428.726600
 21
350.951800
 31
0.000000
  1
C30
  0
TEXT
 39
0.127000
  8
Layer11
 10
430.419933
 20
346.506800
 30
0.000000
 40
0.635000
 71
2
 72
5
 11
428.726600
 21
346.506800
 31
0.000000
  1
C31
  0
TEXT
 39
0.127000
  8
Layer11
 10
418.354933
 20
354.126800
 30
0.000000
 40
0.635000
 71
2
 72
5
 11
416.661600
 21
354.126800
 31
0.000000
  1
C32
  0
TEXT
 39
0.127000
  8
Layer11
 10
473.422133
 20
366.191800
 30
0.000000
 40
0.635000
 71
2
 72
5
 11
471.728800
 21
366.191800
 31
0.000000
  1
SW1
  0
TEXT
 39
0.127000
  8
Layer11
 10
467.067900
 20
354.122567
 30
0.000000
 40
0.635000
 71
2
 72
5
 11
467.067900
 21
355.815900
 31
0.000000
 50
270.000000
  1
SW2
  0
TEXT
 39
0.127000
  8
Layer11
 10
477.227900
 20
354.122567
 30
0.000000
 40
0.635000
 71
2
 72
5
 11
477.227900
 21
355.815900
 31
0.000000
 50
270.000000
  1
SW3
  0
TEXT
 39
0.127000
  8
Layer11
 10
473.422133
 20
343.331800
 30
0.000000
 40
0.635000
 71
2
 72
5
 11
471.728800
 21
343.331800
 31
0.000000
  1
SW4
  0
TEXT
 39
0.127000
  8
Layer11
 10
345.863333
 20
350.291400
 30
0.000000
 40
0.635000
 71
2
 72
5
 11
344.170000
 21
350.291400
 31
0.000000
  1
SW5
  0
TEXT
 39
0.127000
  8
Layer11
 10
454.549933
 20
368.096800
 30
0.000000
 40
0.635000
 71
2
 72
5
 11
452.856600
 21
368.096800
 31
0.000000
  1
RN1
  0
TEXT
 39
0.127000
  8
Layer11
 10
352.314933
 20
362.381800
 30
0.000000
 40
0.635000
 71
2
 72
5
 11
350.621600
 21
362.381800
 31
0.000000
  1
RN2
  0
TEXT
 39
0.127000
  8
Layer11
 10
458.990700
 20
367.457567
 30
0.000000
 40
0.635000
 71
2
 72
5
 11
458.990700
 21
369.150900
 31
0.000000
 50
270.000000
  1
RN3
  0
TEXT
 39
0.127000
  8
Layer11
 10
330.369333
 20
371.805200
 30
0.000000
 40
0.635000
 71
2
 72
5
 11
328.676000
 21
371.805200
 31
0.000000
  1
FH1
  0
TEXT
 39
0.127000
  8
Layer11
 10
330.369333
 20
338.785200
 30
0.000000
 40
0.635000
 71
2
 72
5
 11
328.676000
 21
338.785200
 31
0.000000
  1
FH2
  0
TEXT
 39
0.127000
  8
Layer11
 10
484.369533
 20
371.805200
 30
0.000000
 40
0.635000
 71
2
 72
5
 11
482.676200
 21
371.805200
 31
0.000000
  1
FH3
  0
TEXT
 39
0.127000
  8
Layer11
 10
484.369533
 20
338.785200
 30
0.000000
 40
0.635000
 71
2
 72
5
 11
482.676200
 21
338.785200
 31
0.000000
  1
FH4
  0
ENDSEC
  0
EOF
